  0
SECTION
  2
ENTITIES
  0
ARC
  8
0
 10
671.417
 20
217.5463
 30
0.0
 40
419.0148
 50
94.98817
 51
175.0104
  0
ARC
  8
0
 10
-163.4385
 20
290.4384
 30
0.0
 40
419.0148
 50
274.988
 51
355.0102
  0
ARC
  8
0
 10
-163.4781
 20
-544.4144
 30
0.0
 40
419.0148
 50
4.984638
 51
85.00683
  0
ARC
  8
0
 10
671.3843
 20
-471.6015
 30
0.0
 40
419.0148
 50
184.9843
 51
265.0065
  0
CIRCLE
  8
0
 10
1000
 20
7000
 30
0.0
 40
100
  0
CIRCLE
  8
0
 10
2500
 20
8000
 30
0.0
 40
100
  0
CIRCLE
  8
0
 10
4000
 20
7000
 30
0.0
 40
100
  0
CIRCLE
  8
0
 10
100
 20
100
 30
0.0
 40
125
  0
CIRCLE
  8
0
 10
200
 20
200
 30
0.0
 40
200
  0
CIRCLE
  8
0
 10
300
 20
300
 30
0.0
 40
200
  0
CIRCLE
  8
0
 10
350
 20
350
 30
0.0
 40
200
  0
CIRCLE
  8
0
 10
360
 20
360
 30
0.0
 40
200
  0
CIRCLE
  8
0
 10
370
 20
370
 30
0.0
 40
200
  0
ENDSEC
  0
EOF
