  0
SECTION
  2
ENTITIES
  0
LINE
  8
0
 10
0
 20
508
 30
0.0
 11
444.0982
 21
7.629395E-06
 31
0.0
  0
LINE
  8
0
 10
444.0982
 20
7.629395E-06
 30
0.0
 11
888.1964
 21
517.5435
 31
0.0
  0
LINE
  8
0
 10
888.1964
 20
517.5435
 30
0.0
 11
1332.295
 21
7.629395E-06
 31
0.0
  0
LINE
  8
0
 10
1332.295
 20
7.629395E-06
 30
0.0
 11
1776.393
 21
508
 31
0.0
  0
LINE
  8
0
 10
1776.393
 20
508
 30
0.0
 11
1332.295
 21
7.629395E-06
 31
0.0
  0
LINE
  8
0
 10
1332.295
 20
7.629395E-06
 30
0.0
 11
1776.393
 21
-508
 31
0.0
  0
LINE
  8
0
 10
1776.393
 20
-508
 30
0.0
 11
1332.295
 21
7.629395E-06
 31
0.0
  0
LINE
  8
0
 10
1332.295
 20
7.629395E-06
 30
0.0
 11
888.1964
 21
-517.5435
 31
0.0
  0
LINE
  8
0
 10
888.1964
 20
-517.5435
 30
0.0
 11
444.0982
 21
10.86957
 31
0.0
  0
LINE
  8
0
 10
444.0982
 20
10.86957
 30
0.0
 11
0
 21
-508
 31
0.0
  0
CIRCLE
  8
0
 10
1000
 20
7000
 30
0.0
 40
100
  0
CIRCLE
  8
0
 10
4500
 20
7000
 30
0.0
 40
100
  0
CIRCLE
  8
0
 10
8000
 20
7000
 30
0.0
 40
100
  0
CIRCLE
  8
0
 10
100
 20
100
 30
0.0
 40
125
  0
CIRCLE
  8
0
 10
200
 20
200
 30
0.0
 40
199
  0
CIRCLE
  8
0
 10
300
 20
300
 30
0.0
 40
200
  0
CIRCLE
  8
0
 10
350
 20
350
 30
0.0
 40
200
  0
CIRCLE
  8
0
 10
360
 20
360
 30
0.0
 40
200
  0
CIRCLE
  8
0
 10
370
 20
370
 30
0.0
 40
200
  0
ENDSEC
  0
EOF
