  0
SECTION
  2
ENTITIES
  0
ARC
  8
0
 10
-343.7074
 20
768.8642
 30
0.0
 40
470.7574
 50
313.6093
 51
359.1649
  0
LINE
  8
0
 10
-19.01014
 20
428.0061
 30
0.0
 11
-108.0008
 21
333.9978
 31
0.0
  0
ARC
  8
0
 10
216.6997
 20
-6.857139
 30
0.0
 40
470.7574
 50
133.6097
 51
179.1653
  0
ARC
  8
0
 10
216.6997
 20
6.858642
 30
0.0
 40
470.7574
 50
180.8351
 51
226.3907
  0
LINE
  8
0
 10
-107.9994
 20
-333.9977
 30
0.0
 11
-19.00834
 21
-428.0056
 31
0.0
  0
ARC
  8
0
 10
-343.7043
 20
-768.865
 30
0.0
 40
470.7574
 50
.8356389
 51
46.39124
  0
CIRCLE
  8
0
 10
1000
 20
7000
 30
0.0
 40
100
  0
CIRCLE
  8
0
 10
2000
 20
8000
 30
0.0
 40
100
  0
CIRCLE
  8
0
 10
3000
 20
7000
 30
0.0
 40
100
  0
CIRCLE
  8
0
 10
100
 20
100
 30
0.0
 40
125
  0
CIRCLE
  8
0
 10
200
 20
200
 30
0.0
 40
200
  0
CIRCLE
  8
0
 10
300
 20
300
 30
0.0
 40
200
  0
CIRCLE
  8
0
 10
350
 20
350
 30
0.0
 40
200
  0
CIRCLE
  8
0
 10
360
 20
360
 30
0.0
 40
200
  0
CIRCLE
  8
0
 10
370
 20
370
 30
0.0
 40
200
  0
ENDSEC
  0
EOF
