  0
SECTION
  2
ENTITIES
  0
LINE
  8
0
 10
254
 20
762
 30
0.0
 11
254
 21
635
 31
0.0
  0
LINE
  8
0
 10
254
 20
635
 30
0.0
 11
254
 21
561
 31
0.0
  0
ARC
  8
0
 10
64.78878
 20
552.1145
 30
0.0
 40
189.4198
 50
333.9733
 51
2.688678
  0
LINE
  8
0
 10
234.9996
 20
468.9993
 30
0.0
 11
137.0001
 21
274.0002
 31
0.0
  0
ARC
  8
0
 10
243.9703
 20
226.6765
 30
0.0
 40
116.9707
 50
156.1354
 51
179.8415
  0
LINE
  8
0
 10
127
 20
231.0002
 30
0.0
 11
127
 21
127
 31
0.0
  0
LINE
  8
0
 10
127
 20
127
 30
0.0
 11
127
 21
1.144409E-05
 31
0.0
  0
LINE
  8
0
 10
127
 20
1.144409E-05
 30
0.0
 11
127
 21
-127
 31
0.0
  0
LINE
  8
0
 10
127
 20
-127
 30
0.0
 11
127
 21
-231.0002
 31
0.0
  0
ARC
  8
0
 10
243.9703
 20
-226.6765
 30
0.0
 40
116.9707
 50
180.1586
 51
203.8648
  0
LINE
  8
0
 10
137.0001
 20
-274.0002
 30
0.0
 11
234.9996
 21
-468.9993
 31
0.0
  0
ARC
  8
0
 10
64.78878
 20
-552.1145
 30
0.0
 40
189.4198
 50
357.3113
 51
26.02691
  0
LINE
  8
0
 10
254
 20
-561
 30
0.0
 11
254
 21
-635
 31
0.0
  0
LINE
  8
0
 10
254
 20
-635
 30
0.0
 11
254
 21
-762
 31
0.0
  0
CIRCLE
  8
0
 10
1000
 20
7000
 30
0.0
 40
100
  0
CIRCLE
  8
0
 10
2000
 20
8000
 30
0.0
 40
100
  0
CIRCLE
  8
0
 10
3000
 20
7000
 30
0.0
 40
100
  0
CIRCLE
  8
0
 10
100
 20
100
 30
0.0
 40
125
  0
CIRCLE
  8
0
 10
200
 20
200
 30
0.0
 40
200
  0
CIRCLE
  8
0
 10
300
 20
300
 30
0.0
 40
200
  0
CIRCLE
  8
0
 10
350
 20
350
 30
0.0
 40
200
  0
CIRCLE
  8
0
 10
360
 20
360
 30
0.0
 40
200
  0
CIRCLE
  8
0
 10
370
 20
370
 30
0.0
 40
200
  0
ENDSEC
  0
EOF
