  0
SECTION
  2
ENTITIES
  0
LINE
  8
0
 10
846.6666
 20
469.9
 30
0.0
 11
1036.567
 21
200.7544
 31
0.0
  0
LINE
  8
0
 10
1036.567
 20
200.7544
 30
0.0
 11
846.6666
 21
-60.89816
 31
0.0
  0
LINE
  8
0
 10
846.6666
 20
-60.89816
 30
0.0
 11
1036.567
 21
200.7544
 31
0.0
  0
LINE
  8
0
 10
1036.567
 20
200.7544
 30
0.0
 11
1329.53
 21
200.7544
 31
0.0
  0
LINE
  8
0
 10
1329.53
 20
200.7544
 30
0.0
 11
1153.076
 21
-60.89816
 31
0.0
  0
LINE
  8
0
 10
1153.076
 20
-60.89816
 30
0.0
 11
1329.53
 21
200.7544
 31
0.0
  0
LINE
  8
0
 10
1329.53
 20
200.7544
 30
0.0
 11
1329.53
 21
-102.9043
 31
0.0
  0
LINE
  8
0
 10
1329.53
 20
-102.9043
 30
0.0
 11
1608.666
 21
-101.6
 31
0.0
  0
LINE
  8
0
 10
1608.666
 20
-101.6
 30
0.0
 11
1329.53
 21
200.7544
 31
0.0
  0
LINE
  8
0
 10
1329.53
 20
200.7544
 30
0.0
 11
1086.596
 21
469.9
 31
0.0
  0
LINE
  8
0
 10
1086.596
 20
469.9
 30
0.0
 11
1258.883
 21
469.9
 31
0.0
  0
LINE
  8
0
 10
1258.883
 20
469.9
 30
0.0
 11
1608.666
 21
88.90009
 31
0.0
  0
LINE
  8
0
 10
1608.666
 20
88.90009
 30
0.0
 11
1958.45
 21
469.9
 31
0.0
  0
LINE
  8
0
 10
1958.45
 20
469.9
 30
0.0
 11
1799.167
 21
469.9
 31
0.0
  0
LINE
  8
0
 10
1799.167
 20
469.9
 30
0.0
 11
1608.666
 21
265.7043
 31
0.0
  0
LINE
  8
0
 10
1608.666
 20
265.7043
 30
0.0
 11
1418.167
 21
469.9
 31
0.0
  0
LINE
  8
0
 10
1418.167
 20
469.9001
 30
0.0
 11
1608.666
 21
469.9001
 31
0.0
  0
LINE
  8
0
 10
1608.666
 20
469.9001
 30
0.0
 11
1608.666
 21
265.7039
 31
0.0
  0
LINE
  8
0
 10
1608.666
 20
265.7043
 30
0.0
 11
1608.666
 21
88.90009
 31
0.0
  0
LINE
  8
0
 10
1608.666
 20
88.90009
 30
0.0
 11
1608.666
 21
-101.6
 31
0.0
  0
LINE
  8
0
 10
1608.666
 20
-101.6
 30
0.0
 11
1887.803
 21
200.7544
 31
0.0
  0
LINE
  8
0
 10
1887.803
 20
200.7544
 30
0.0
 11
2130.737
 21
469.9
 31
0.0
  0
LINE
  8
0
 10
2130.737
 20
469.9
 30
0.0
 11
2370.667
 21
469.9
 31
0.0
  0
LINE
  8
0
 10
2370.667
 20
469.9
 30
0.0
 11
2180.767
 21
200.7544
 31
0.0
  0
LINE
  8
0
 10
2180.767
 20
200.7544
 30
0.0
 11
2370.667
 21
-60.89816
 31
0.0
  0
LINE
  8
0
 10
2370.667
 20
-60.89816
 30
0.0
 11
2180.767
 21
200.7544
 31
0.0
  0
LINE
  8
0
 10
2180.767
 20
200.7544
 30
0.0
 11
1887.803
 21
200.7544
 31
0.0
  0
LINE
  8
0
 10
1887.803
 20
200.7544
 30
0.0
 11
2064.258
 21
-60.89816
 31
0.0
  0
LINE
  8
0
 10
2064.258
 20
-60.89816
 30
0.0
 11
1887.803
 21
200.7544
 31
0.0
  0
LINE
  8
0
 10
1887.803
 20
200.7544
 30
0.0
 11
1887.803
 21
-102.9043
 31
0.0
  0
LINE
  8
0
 10
1887.803
 20
-102.9043
 30
0.0
 11
1608.666
 21
-101.6
 31
0.0
  0
LINE
  8
0
 10
1608.666
 20
-101.6
 30
0.0
 11
1457.767
 21
-366.6693
 31
0.0
  0
LINE
  8
0
 10
1457.767
 20
-366.6693
 30
0.0
 11
1153.207
 21
-366.6693
 31
0.0
  0
LINE
  8
0
 10
1153.207
 20
-366.6693
 30
0.0
 11
1329.53
 21
-102.9043
 31
0.0
  0
LINE
  8
0
 10
1329.53
 20
-102.9043
 30
0.0
 11
1153.207
 21
-366.6693
 31
0.0
  0
LINE
  8
0
 10
1153.207
 20
-366.6693
 30
0.0
 11
1153.076
 21
-60.89816
 31
0.0
  0
LINE
  8
0
 10
1153.076
 20
-60.89816
 30
0.0
 11
846.6666
 21
-60.89816
 31
0.0
  0
LINE
  8
0
 10
846.6666
 20
-60.89816
 30
0.0
 11
1153.076
 21
-60.89816
 31
0.0
  0
LINE
  8
0
 10
1153.076
 20
-60.89816
 30
0.0
 11
1153.207
 21
-366.6693
 31
0.0
  0
LINE
  8
0
 10
1153.207
 20
-366.6693
 30
0.0
 11
1457.767
 21
-366.6693
 31
0.0
  0
LINE
  8
0
 10
1457.767
 20
-366.6693
 30
0.0
 11
1458.869
 21
-673.0999
 31
0.0
  0
LINE
  8
0
 10
1458.869
 20
-673.0999
 30
0.0
 11
1153.207
 21
-366.6693
 31
0.0
  0
LINE
  8
0
 10
1153.207
 20
-366.6693
 30
0.0
 11
846.6666
 21
-60.89816
 31
0.0
  0
LINE
  8
0
 10
846.6666
 20
-60.89816
 30
0.0
 11
846.6666
 21
-267.669
 31
0.0
  0
LINE
  8
0
 10
846.6666
 20
-267.669
 30
0.0
 11
1252.097
 21
-673.0999
 31
0.0
  0
LINE
  8
0
 10
1252.097
 20
-673.0999
 30
0.0
 11
846.6666
 21
-1078.53
 31
0.0
  0
LINE
  8
0
 10
846.6666
 20
-1078.53
 30
0.0
 11
846.6666
 21
-883.8462
 31
0.0
  0
LINE
  8
0
 10
846.6666
 20
-883.8462
 30
0.0
 11
1057.415
 21
-673.0999
 31
0.0
  0
LINE
  8
0
 10
1057.415
 20
-673.0999
 30
0.0
 11
846.6666
 21
-462.3526
 31
0.0
  0
LINE
  8
0
 10
846.6666
 20
-462.3526
 30
0.0
 11
846.6666
 21
-673.0999
 31
0.0
  0
LINE
  8
0
 10
846.6666
 20
-673.0999
 30
0.0
 11
1057.415
 21
-673.0999
 31
0.0
  0
LINE
  8
0
 10
1057.415
 20
-673.0999
 30
0.0
 11
1252.097
 21
-673.0999
 31
0.0
  0
LINE
  8
0
 10
1252.097
 20
-673.0999
 30
0.0
 11
1458.869
 21
-673.0999
 31
0.0
  0
LINE
  8
0
 10
1458.869
 20
-673.0999
 30
0.0
 11
1609.768
 21
-938.1694
 31
0.0
  0
LINE
  8
0
 10
1607.566
 20
-938.1694
 30
0.0
 11
1758.465
 21
-673.0999
 31
0.0
  0
LINE
  8
0
 10
1758.465
 20
-673.0999
 30
0.0
 11
1607.564
 21
-408.0307
 31
0.0
  0
LINE
  8
0
 10
1609.769
 20
-408.0307
 30
0.0
 11
1458.869
 21
-673.0999
 31
0.0
  0
LINE
  8
0
 10
1458.869
 20
-673.0999
 30
0.0
 11
1609.769
 21
-408.0307
 31
0.0
  0
LINE
  8
0
 10
1607.564
 20
-408.0307
 30
0.0
 11
1608.666
 21
-101.6006
 31
0.0
  0
LINE
  8
0
 10
1608.666
 20
-101.6
 30
0.0
 11
1759.567
 21
-366.6693
 31
0.0
  0
LINE
  8
0
 10
1759.567
 20
-366.6693
 30
0.0
 11
1758.465
 21
-673.0999
 31
0.0
  0
LINE
  8
0
 10
1758.465
 20
-673.0999
 30
0.0
 11
1759.567
 21
-366.6693
 31
0.0
  0
LINE
  8
0
 10
1759.567
 20
-366.6693
 30
0.0
 11
2064.127
 21
-366.6693
 31
0.0
  0
LINE
  8
0
 10
2064.127
 20
-366.6693
 30
0.0
 11
1887.803
 21
-102.9043
 31
0.0
  0
LINE
  8
0
 10
1887.803
 20
-102.9043
 30
0.0
 11
2064.127
 21
-366.6693
 31
0.0
  0
LINE
  8
0
 10
2064.127
 20
-366.6693
 30
0.0
 11
2064.258
 21
-60.89816
 31
0.0
  0
LINE
  8
0
 10
2064.258
 20
-60.89816
 30
0.0
 11
2370.667
 21
-60.89816
 31
0.0
  0
LINE
  8
0
 10
2370.667
 20
-60.89816
 30
0.0
 11
2064.127
 21
-366.6693
 31
0.0
  0
LINE
  8
0
 10
2064.127
 20
-366.6693
 30
0.0
 11
1758.465
 21
-673.0999
 31
0.0
  0
LINE
  8
0
 10
1758.465
 20
-673.0999
 30
0.0
 11
1965.236
 21
-673.0999
 31
0.0
  0
LINE
  8
0
 10
1965.236
 20
-673.0999
 30
0.0
 11
2159.919
 21
-673.0999
 31
0.0
  0
LINE
  8
0
 10
2159.919
 20
-673.0999
 30
0.0
 11
2370.667
 21
-673.0999
 31
0.0
  0
LINE
  8
0
 10
2370.667
 20
-673.0999
 30
0.0
 11
2370.667
 21
-883.8462
 31
0.0
  0
LINE
  8
0
 10
2370.667
 20
-883.8462
 30
0.0
 11
2159.919
 21
-673.0999
 31
0.0
  0
LINE
  8
0
 10
2159.919
 20
-673.0999
 30
0.0
 11
2370.667
 21
-462.3526
 31
0.0
  0
LINE
  8
0
 10
2370.667
 20
-462.3526
 30
0.0
 11
2370.667
 21
-267.669
 31
0.0
  0
LINE
  8
0
 10
2370.667
 20
-267.669
 30
0.0
 11
1965.236
 21
-673.0999
 31
0.0
  0
LINE
  8
0
 10
1965.236
 20
-673.0999
 30
0.0
 11
2370.667
 21
-1078.53
 31
0.0
  0
LINE
  8
0
 10
2370.667
 20
-1078.53
 30
0.0
 11
2370.667
 21
-1285.302
 31
0.0
  0
LINE
  8
0
 10
2370.667
 20
-1285.302
 30
0.0
 11
2064.127
 21
-979.5297
 31
0.0
  0
LINE
  8
0
 10
2064.127
 20
-979.5297
 30
0.0
 11
1758.465
 21
-673.0999
 31
0.0
  0
LINE
  8
0
 10
1758.465
 20
-673.0999
 30
0.0
 11
1759.567
 21
-979.5297
 31
0.0
  0
LINE
  8
0
 10
1759.567
 20
-979.5297
 30
0.0
 11
2064.127
 21
-979.5297
 31
0.0
  0
LINE
  8
0
 10
2064.127
 20
-979.5304
 30
0.0
 11
1887.803
 21
-1243.296
 31
0.0
  0
LINE
  8
0
 10
1887.803
 20
-1243.296
 30
0.0
 11
2064.127
 21
-979.5304
 31
0.0
  0
LINE
  8
0
 10
2064.127
 20
-979.5304
 30
0.0
 11
2064.258
 21
-1285.302
 31
0.0
  0
LINE
  8
0
 10
2064.258
 20
-1285.302
 30
0.0
 11
1887.803
 21
-1546.954
 31
0.0
  0
LINE
  8
0
 10
1887.803
 20
-1546.954
 30
0.0
 11
2064.258
 21
-1285.302
 31
0.0
  0
LINE
  8
0
 10
2064.258
 20
-1285.302
 30
0.0
 11
2370.667
 21
-1285.302
 31
0.0
  0
LINE
  8
0
 10
2370.667
 20
-1285.302
 30
0.0
 11
2180.767
 21
-1546.954
 31
0.0
  0
LINE
  8
0
 10
2180.767
 20
-1546.954
 30
0.0
 11
2370.667
 21
-1816.1
 31
0.0
  0
LINE
  8
0
 10
2370.667
 20
-1816.1
 30
0.0
 11
2180.767
 21
-1546.954
 31
0.0
  0
LINE
  8
0
 10
2180.767
 20
-1546.954
 30
0.0
 11
1887.803
 21
-1546.954
 31
0.0
  0
LINE
  8
0
 10
1887.803
 20
-1546.954
 30
0.0
 11
2130.737
 21
-1816.1
 31
0.0
  0
LINE
  8
0
 10
2130.737
 20
-1816.1
 30
0.0
 11
1958.45
 21
-1816.1
 31
0.0
  0
LINE
  8
0
 10
1958.45
 20
-1816.1
 30
0.0
 11
1608.666
 21
-1435.1
 31
0.0
  0
LINE
  8
0
 10
1608.666
 20
-1435.1
 30
0.0
 11
1258.883
 21
-1816.1
 31
0.0
  0
LINE
  8
0
 10
1258.883
 20
-1816.1
 30
0.0
 11
1418.167
 21
-1816.1
 31
0.0
  0
LINE
  8
0
 10
1418.167
 20
-1816.1
 30
0.0
 11
1608.666
 21
-1611.903
 31
0.0
  0
LINE
  8
0
 10
1608.666
 20
-1611.903
 30
0.0
 11
1799.167
 21
-1816.1
 31
0.0
  0
LINE
  8
0
 10
1799.167
 20
-1816.1
 30
0.0
 11
1608.666
 21
-1816.1
 31
0.0
  0
LINE
  8
0
 10
1608.666
 20
-1816.1
 30
0.0
 11
1608.666
 21
-1611.903
 31
0.0
  0
LINE
  8
0
 10
1608.666
 20
-1611.903
 30
0.0
 11
1608.666
 21
-1435.1
 31
0.0
  0
LINE
  8
0
 10
1608.666
 20
-1435.1
 30
0.0
 11
1608.666
 21
-1244.6
 31
0.0
  0
LINE
  8
0
 10
1608.666
 20
-1244.6
 30
0.0
 11
1887.803
 21
-1546.954
 31
0.0
  0
LINE
  8
0
 10
1887.803
 20
-1546.954
 30
0.0
 11
1887.803
 21
-1243.296
 31
0.0
  0
LINE
  8
0
 10
1887.803
 20
-1243.296
 30
0.0
 11
1608.666
 21
-1244.6
 31
0.0
  0
LINE
  8
0
 10
1608.666
 20
-1244.6
 30
0.0
 11
1759.567
 21
-979.5297
 31
0.0
  0
LINE
  8
0
 10
1759.567
 20
-979.5297
 30
0.0
 11
1608.666
 21
-1244.6
 31
0.0
  0
LINE
  8
0
 10
1608.668
 20
-1244.601
 30
0.0
 11
1607.566
 21
-938.1694
 31
0.0
  0
LINE
  8
0
 10
1607.566
 20
-938.1694
 30
0.0
 11
1608.668
 21
-1244.601
 31
0.0
  0
LINE
  8
0
 10
1608.666
 20
-1244.6
 30
0.0
 11
1457.767
 21
-979.5297
 31
0.0
  0
LINE
  8
0
 10
1457.767
 20
-979.5297
 30
0.0
 11
1153.207
 21
-979.5297
 31
0.0
  0
LINE
  8
0
 10
1153.207
 20
-979.5297
 30
0.0
 11
1457.767
 21
-979.5297
 31
0.0
  0
LINE
  8
0
 10
1457.767
 20
-979.5297
 30
0.0
 11
1458.869
 21
-673.0999
 31
0.0
  0
LINE
  8
0
 10
1458.869
 20
-673.0999
 30
0.0
 11
1153.207
 21
-979.5297
 31
0.0
  0
LINE
  8
0
 10
1153.207
 20
-979.5297
 30
0.0
 11
846.6666
 21
-1285.302
 31
0.0
  0
LINE
  8
0
 10
846.6666
 20
-1285.302
 30
0.0
 11
1153.076
 21
-1285.302
 31
0.0
  0
LINE
  8
0
 10
1153.076
 20
-1285.302
 30
0.0
 11
1153.207
 21
-979.5304
 31
0.0
  0
LINE
  8
0
 10
1153.207
 20
-979.5304
 30
0.0
 11
1329.53
 21
-1243.296
 31
0.0
  0
LINE
  8
0
 10
1329.53
 20
-1243.296
 30
0.0
 11
1608.666
 21
-1244.6
 31
0.0
  0
LINE
  8
0
 10
1608.666
 20
-1244.6
 30
0.0
 11
1329.53
 21
-1546.954
 31
0.0
  0
LINE
  8
0
 10
1329.53
 20
-1546.954
 30
0.0
 11
1329.53
 21
-1243.296
 31
0.0
  0
LINE
  8
0
 10
1329.53
 20
-1243.296
 30
0.0
 11
1329.53
 21
-1546.954
 31
0.0
  0
LINE
  8
0
 10
1329.53
 20
-1546.954
 30
0.0
 11
1153.076
 21
-1285.302
 31
0.0
  0
LINE
  8
0
 10
1153.076
 20
-1285.302
 30
0.0
 11
1329.53
 21
-1546.954
 31
0.0
  0
LINE
  8
0
 10
1329.53
 20
-1546.954
 30
0.0
 11
1086.596
 21
-1816.1
 31
0.0
  0
LINE
  8
0
 10
1086.596
 20
-1816.1
 30
0.0
 11
846.6666
 21
-1816.1
 31
0.0
  0
LINE
  8
0
 10
846.6666
 20
-1816.1
 30
0.0
 11
1036.567
 21
-1546.954
 31
0.0
  0
LINE
  8
0
 10
1036.567
 20
-1546.954
 30
0.0
 11
1329.53
 21
-1546.954
 31
0.0
  0
LINE
  8
0
 10
1329.53
 20
-1546.954
 30
0.0
 11
1036.567
 21
-1546.954
 31
0.0
  0
LINE
  8
0
 10
1036.567
 20
-1546.954
 30
0.0
 11
846.6666
 21
-1285.302
 31
0.0
  0
LINE
  8
0
 10
846.6666
 20
-1285.302
 30
0.0
 11
1036.567
 21
-1546.954
 31
0.0
  0
LINE
  8
0
 10
1036.567
 20
-1546.954
 30
0.0
 11
846.6666
 21
-1816.1
 31
0.0
  0
CIRCLE
  8
0
 10
1000
 20
7000
 30
0.0
 40
100
  0
CIRCLE
  8
0
 10
4000
 20
7000
 30
0.0
 40
100
  0
CIRCLE
  8
0
 10
7000
 20
7000
 30
0.0
 40
100
  0
CIRCLE
  8
0
 10
100
 20
100
 30
0.0
 40
128
  0
CIRCLE
  8
0
 10
200
 20
200
 30
0.0
 40
200
  0
CIRCLE
  8
0
 10
300
 20
300
 30
0.0
 40
200
  0
CIRCLE
  8
0
 10
350
 20
350
 30
0.0
 40
200
  0
CIRCLE
  8
0
 10
360
 20
360
 30
0.0
 40
200
  0
CIRCLE
  8
0
 10
370
 20
370
 30
0.0
 40
200
  0
ENDSEC
  0
EOF
