  0
SECTION
  2
ENTITIES
  0
ARC
  8
0
 10
115.8193
 20
515.6389
 30
0.0
 40
138.3916
 50
324.8685
 51
356.8361
  0
LINE
  8
0
 10
229.0002
 20
436.0001
 30
0.0
 11
-101.9998
 21
72.00027
 31
0.0
  0
ARC
  8
0
 10
11.18063
 20
-7.639174
 30
0.0
 40
138.3916
 50
144.868
 51
176.8356
  0
ARC
  8
0
 10
11.1807
 20
7.639078
 30
0.0
 40
138.3916
 50
183.164
 51
215.1317
  0
LINE
  8
0
 10
-102.0001
 20
-71.99857
 30
0.0
 11
228.9981
 21
-436
 31
0.0
  0
ARC
  8
0
 10
115.8168
 20
-515.6382
 30
0.0
 40
138.3916
 50
3.163921
 51
35.13155
  0
CIRCLE
  8
0
 10
1000
 20
7000
 30
0.0
 40
100
  0
CIRCLE
  8
0
 10
2000
 20
8000
 30
0.0
 40
100
  0
CIRCLE
  8
0
 10
3000
 20
7000
 30
0.0
 40
100
  0
CIRCLE
  8
0
 10
100
 20
100
 30
0.0
 40
125
  0
CIRCLE
  8
0
 10
200
 20
200
 30
0.0
 40
200
  0
CIRCLE
  8
0
 10
300
 20
300
 30
0.0
 40
200
  0
CIRCLE
  8
0
 10
350
 20
350
 30
0.0
 40
200
  0
CIRCLE
  8
0
 10
360
 20
360
 30
0.0
 40
200
  0
CIRCLE
  8
0
 10
370
 20
370
 30
0.0
 40
200
  0
ENDSEC
  0
EOF
