  0
SECTION
  2
ENTITIES
  0
ARC
  8
0
 10
-131.7606
 20
821.7761
 30
0.0
 40
390.3648
 50
319.2577
 51
351.192
  0
LINE
  8
0
 10
163.9991
 20
566.9999
 30
0.0
 11
-163.9992
 21
195
 31
0.0
  0
ARC
  8
0
 10
131.7603
 20
-59.7764
 30
0.0
 40
390.3648
 50
139.2575
 51
171.1918
  0
ARC
  8
0
 10
131.7603
 20
59.77639
 30
0.0
 40
390.3648
 50
188.8084
 51
220.7426
  0
LINE
  8
0
 10
-163.9992
 20
-195.0001
 30
0.0
 11
163.9991
 21
-566.9999
 31
0.0
  0
ARC
  8
0
 10
-131.7605
 20
-821.7761
 30
0.0
 40
390.3648
 50
8.808305
 51
40.74263
  0
CIRCLE
  8
0
 10
1000
 20
7000
 30
0.0
 40
100
  0
CIRCLE
  8
0
 10
2500
 20
8000
 30
0.0
 40
100
  0
CIRCLE
  8
0
 10
4000
 20
7000
 30
0.0
 40
100
  0
CIRCLE
  8
0
 10
100
 20
100
 30
0.0
 40
125
  0
CIRCLE
  8
0
 10
200
 20
200
 30
0.0
 40
200
  0
CIRCLE
  8
0
 10
300
 20
300
 30
0.0
 40
200
  0
CIRCLE
  8
0
 10
350
 20
350
 30
0.0
 40
200
  0
CIRCLE
  8
0
 10
360
 20
360
 30
0.0
 40
200
  0
CIRCLE
  8
0
 10
370
 20
370
 30
0.0
 40
200
  0
ENDSEC
  0
EOF
