  0
SECTION
  2
ENTITIES
  0
ARC
  8
0
 10
-136.3237
 20
322.0674
 30
0.0
 40
138.1428
 50
301.8468
 51
350.6905
  0
LINE
  8
0
 10
-63.43311
 20
204.7201
 30
0.0
 11
-335.9995
 21
95.00035
 31
0.0
  0
ARC
  8
0
 10
-263.1111
 20
-22.34831
 30
0.0
 40
138.1428
 50
121.8456
 51
170.6893
  0
ARC
  8
0
 10
-263.1107
 20
22.34983
 30
0.0
 40
138.1428
 50
189.3099
 51
238.1536
  0
LINE
  8
0
 10
-336.0002
 20
-94.99783
 30
0.0
 11
-63.43483
 21
-204.7199
 31
0.0
  0
ARC
  8
0
 10
-136.3264
 20
-322.0666
 30
0.0
 40
138.1428
 50
9.309259
 51
58.15297
  0
CIRCLE
  8
0
 10
1000
 20
7000
 30
0.0
 40
100
  0
CIRCLE
  8
0
 10
2000
 20
7000
 30
0.0
 40
100
  0
CIRCLE
  8
0
 10
3000
 20
7000
 30
0.0
 40
100
  0
CIRCLE
  8
0
 10
100
 20
100
 30
0.0
 40
125
  0
CIRCLE
  8
0
 10
200
 20
200
 30
0.0
 40
200
  0
CIRCLE
  8
0
 10
300
 20
300
 30
0.0
 40
200
  0
CIRCLE
  8
0
 10
350
 20
350
 30
0.0
 40
200
  0
CIRCLE
  8
0
 10
360
 20
360
 30
0.0
 40
200
  0
CIRCLE
  8
0
 10
370
 20
370
 30
0.0
 40
200
  0
ENDSEC
  0
EOF
