  0
SECTION
  2
ENTITIES
  0
ARC
  8
0
 10
-182.954
 20
782.0081
 30
0.0
 40
437.4121
 50
318.2953
 51
357.3785
  0
LINE
  8
0
 10
143.6096
 20
491.0004
 30
0.0
 11
-90.99934
 21
271.0011
 31
0.0
  0
ARC
  8
0
 10
235.561
 20
-20.01031
 30
0.0
 40
437.4121
 50
138.2945
 51
177.3777
  0
ARC
  8
0
 10
235.5612
 20
20.01054
 30
0.0
 40
437.4121
 50
182.6217
 51
221.7049
  0
LINE
  8
0
 10
-91.00131
 20
-270.9986
 30
0.0
 11
143.6061
 21
-490.9996
 31
0.0
  0
ARC
  8
0
 10
-182.9597
 20
-782.0049
 30
0.0
 40
437.4121
 50
2.621329
 51
41.70452
  0
CIRCLE
  8
0
 10
1000
 20
7000
 30
0.0
 40
100
  0
CIRCLE
  8
0
 10
2500
 20
8000
 30
0.0
 40
100
  0
CIRCLE
  8
0
 10
4000
 20
7000
 30
0.0
 40
100
  0
CIRCLE
  8
0
 10
100
 20
100
 30
0.0
 40
125
  0
CIRCLE
  8
0
 10
200
 20
200
 30
0.0
 40
200
  0
CIRCLE
  8
0
 10
300
 20
300
 30
0.0
 40
200
  0
CIRCLE
  8
0
 10
350
 20
350
 30
0.0
 40
200
  0
CIRCLE
  8
0
 10
360
 20
360
 30
0.0
 40
200
  0
CIRCLE
  8
0
 10
370
 20
370
 30
0.0
 40
200
  0
ENDSEC
  0
EOF
