  0
SECTION
  2
ENTITIES
  0
ARC
  8
0
 10
88.33046
 20
258.0048
 30
0.0
 40
165.011
 50
301.865
 51
358.4186
  0
ARC
  8
0
 10
-14.74135
 20
420.8985
 30
0.0
 40
357.7726
 50
272.3329
 51
302.112
  0
ARC
  8
0
 10
14.5636
 20
-294.0557
 30
0.0
 40
357.7726
 50
92.33314
 51
122.1122
  0
ARC
  8
0
 10
-88.50821
 20
-131.162
 30
0.0
 40
165.011
 50
121.8651
 51
178.4188
  0
ARC
  8
0
 10
-418.4044
 20
-122.0536
 30
0.0
 40
165.011
 50
301.865
 51
358.4186
  0
ARC
  8
0
 10
-521.4763
 20
40.84008
 30
0.0
 40
357.7726
 50
272.3329
 51
302.112
  0
ARC
  8
0
 10
-492.1713
 20
-674.1141
 30
0.0
 40
357.7726
 50
92.33314
 51
122.1122
  0
ARC
  8
0
 10
-595.2431
 20
-511.2204
 30
0.0
 40
165.011
 50
121.8651
 51
178.4188
  0
ARC
  8
0
 10
-595.2274
 20
-502.7271
 30
0.0
 40
165.011
 50
181.3681
 51
237.9218
  0
ARC
  8
0
 10
-491.5502
 20
-340.218
 30
0.0
 40
357.7726
 50
237.6748
 51
267.4538
  0
ARC
  8
0
 10
-523.515
 20
-1055.058
 30
0.0
 40
357.7726
 50
57.67513
 51
87.45416
  0
ARC
  8
0
 10
-419.8378
 20
-892.549
 30
0.0
 40
165.011
 50
1.368423
 51
57.92212
  0
ARC
  8
0
 10
-89.90995
 20
-884.6682
 30
0.0
 40
165.011
 50
181.3681
 51
237.9218
  0
ARC
  8
0
 10
13.76721
 20
-722.1591
 30
0.0
 40
357.7726
 50
237.6748
 51
267.4538
  0
ARC
  8
0
 10
-18.19759
 20
-1436.999
 30
0.0
 40
357.7726
 50
57.67506
 51
87.45411
  0
ARC
  8
0
 10
85.47957
 20
-1274.49
 30
0.0
 40
165.011
 50
1.368401
 51
57.92212
  0
CIRCLE
  8
0
 10
1000
 20
7000
 30
0.0
 40
100
  0
CIRCLE
  8
0
 10
1000
 20
8000
 30
0.0
 40
100
  0
CIRCLE
  8
0
 10
3000
 20
7000
 30
0.0
 40
100
  0
CIRCLE
  8
0
 10
3000
 20
8000
 30
0.0
 40
100
  0
CIRCLE
  8
0
 10
5000
 20
7000
 30
0.0
 40
100
  0
CIRCLE
  8
0
 10
5000
 20
8000
 30
0.0
 40
100
  0
CIRCLE
  8
0
 10
100
 20
100
 30
0.0
 40
125
  0
CIRCLE
  8
0
 10
200
 20
200
 30
0.0
 40
200
  0
CIRCLE
  8
0
 10
300
 20
300
 30
0.0
 40
200
  0
CIRCLE
  8
0
 10
350
 20
350
 30
0.0
 40
200
  0
CIRCLE
  8
0
 10
360
 20
360
 30
0.0
 40
200
  0
CIRCLE
  8
0
 10
370
 20
370
 30
0.0
 40
200
  0
ENDSEC
  0
EOF
