  0
SECTION
  2
ENTITIES
  0
ARC
  8
0
 10
8.588124
 20
269.2838
 30
0.0
 40
245.8879
 50
306.2545
 51
356.4365
  0
LINE
  8
0
 10
153.9989
 20
70.99966
 30
0.0
 11
-408.0005
 21
-325.0004
 31
0.0
  0
ARC
  8
0
 10
-262.5887
 20
-523.2837
 30
0.0
 40
245.8879
 50
126.2547
 51
176.4366
  0
ARC
  8
0
 10
-262.5887
 20
-492.7174
 30
0.0
 40
245.8879
 50
183.5635
 51
233.7455
  0
LINE
  8
0
 10
-408.0005
 20
-691.0008
 30
0.0
 11
153.9989
 21
-1087.001
 31
0.0
  0
ARC
  8
0
 10
8.588124
 20
-1285.285
 30
0.0
 40
245.8879
 50
3.563793
 51
53.74576
  0
CIRCLE
  8
0
 10
1000
 20
7000
 30
0.0
 40
100
  0
CIRCLE
  8
0
 10
1000
 20
8000
 30
0.0
 40
100
  0
CIRCLE
  8
0
 10
2500
 20
7000
 30
0.0
 40
100
  0
CIRCLE
  8
0
 10
2500
 20
8000
 30
0.0
 40
100
  0
CIRCLE
  8
0
 10
4000
 20
7000
 30
0.0
 40
100
  0
CIRCLE
  8
0
 10
4000
 20
8000
 30
0.0
 40
100
  0
CIRCLE
  8
0
 10
100
 20
100
 30
0.0
 40
125
  0
CIRCLE
  8
0
 10
200
 20
200
 30
0.0
 40
200
  0
CIRCLE
  8
0
 10
300
 20
300
 30
0.0
 40
200
  0
CIRCLE
  8
0
 10
350
 20
350
 30
0.0
 40
200
  0
CIRCLE
  8
0
 10
360
 20
360
 30
0.0
 40
200
  0
CIRCLE
  8
0
 10
370
 20
370
 30
0.0
 40
200
  0
ENDSEC
  0
EOF
