  0
SECTION
  2
ENTITIES
  0
LINE
  8
0
 10
72.29308
 20
58.41998
 30
0.0
 11
23.01765
 21
58.42
 31
0.0
  0
ARC
  8
0
 10
30.00055
 20
29.21001
 30
0.0
 40
30.03305
 50
103.4446
 51
256.5554
  0
LINE
  8
0
 10
23.01765
 20
1.922184E-05
 30
0.0
 11
72.29308
 21
0
 31
0.0
  0
LINE
  8
0
 10
72.29308
 20
0
 30
0.0
 11
121.5685
 21
1.829284E-05
 31
0.0
  0
ARC
  8
0
 10
114.5856
 20
-29.20997
 30
0.0
 40
30.03305
 50
283.4448
 51
76.55547
  0
LINE
  8
0
 10
121.5685
 20
-58.42
 30
0.0
 11
72.29308
 21
-58.42002
 31
0.0
  0
CIRCLE
  8
0
 10
1000
 20
7000
 30
0.0
 40
100
  0
CIRCLE
  8
0
 10
2000
 20
7000
 30
0.0
 40
100
  0
CIRCLE
  8
0
 10
3000
 20
7000
 30
0.0
 40
100
  0
CIRCLE
  8
0
 10
100
 20
100
 30
0.0
 40
122
  0
CIRCLE
  8
0
 10
200
 20
200
 30
0.0
 40
200
  0
CIRCLE
  8
0
 10
300
 20
300
 30
0.0
 40
200
  0
CIRCLE
  8
0
 10
350
 20
350
 30
0.0
 40
200
  0
CIRCLE
  8
0
 10
360
 20
360
 30
0.0
 40
200
  0
CIRCLE
  8
0
 10
370
 20
370
 30
0.0
 40
200
  0
ENDSEC
  0
EOF
