  0
SECTION
  2
ENTITIES
  0
ARC
  8
0
 10
169.4611
 20
684.0659
 30
0.0
 40
645.7974
 50
280.9374
 51
312.7701
  0
LINE
  8
0
 10
291.9936
 20
49.99937
 30
0.0
 11
138.9982
 21
24.99962
 31
0.0
  0
ARC
  8
0
 10
71.78283
 20
343.0574
 30
0.0
 40
325.0824
 50
209.3531
 51
281.933
  0
ARC
  8
0
 10
-402.3322
 20
-18.46123
 30
0.0
 40
277.9633
 50
46.66156
 51
91.99326
  0
ARC
  8
0
 10
-358.4042
 20
142.4546
 30
0.0
 40
128.5817
 50
114.6341
 51
231.3752
  0
ARC
  8
0
 10
-229.5158
 20
410.8542
 30
0.0
 40
424.0251
 50
240.4453
 51
265.195
  0
ARC
  8
0
 10
-286.2344
 20
-74.52634
 30
0.0
 40
66.32515
 50
301.0747
 51
71.35771
  0
ARC
  8
0
 10
-211.5616
 20
-212.4199
 30
0.0
 40
90.6112
 50
116.5062
 51
242.7852
  0
ARC
  8
0
 10
-302.4964
 20
-381.3138
 30
0.0
 40
101.2378
 50
18.8131
 51
60.73145
  0
ARC
  8
0
 10
-144.5103
 20
-330.467
 30
0.0
 40
64.76643
 50
196.3201
 51
308.7175
  0
LINE
  8
0
 10
-104.0007
 20
-381.0004
 30
0.0
 11
266.5745
 21
-148.8956
 31
0.0
  0
LINE
  8
0
 10
266.5745
 20
-148.8956
 30
0.0
 11
374.0002
 21
-89.00013
 31
0.0
  0
ARC
  8
0
 10
430.8805
 20
-251.3162
 30
0.0
 40
171.9938
 50
10.49032
 51
109.312
  0
ARC
  8
0
 10
351.9498
 20
-159.4202
 30
0.0
 40
255.3403
 50
302.5221
 51
346.2755
  0
ARC
  8
0
 10
505.7494
 20
-427.2307
 30
0.0
 40
55.04974
 50
107.4656
 51
224.7698
  0
LINE
  8
0
 10
466.6676
 20
-466.0001
 30
0.0
 11
522.3471
 21
-532.5105
 31
0.0
  0
ARC
  8
0
 10
478.939
 20
-566.7557
 30
0.0
 40
55.29022
 50
257.1763
 51
38.27034
  0
ARC
  8
0
 10
426.6674
 20
-715.6681
 30
0.0
 40
103.0786
 50
67.16675
 51
112.8335
  0
ARC
  8
0
 10
322.8336
 20
-469.1686
 30
0.0
 40
164.3976
 50
275.9937
 51
292.848
  0
ARC
  8
0
 10
263.0737
 20
-991.6803
 30
0.0
 40
367.1624
 50
77.90605
 51
131.8
  0
ARC
  8
0
 10
1972.406
 20
-1716.928
 30
0.0
 40
2194.597
 50
152.9228
 51
168.7469
  0
ARC
  8
0
 10
-340.4098
 20
-1285.13
 30
0.0
 40
160.4482
 50
290.5834
 51
358.7364
  0
LINE
  8
0
 10
-284.0011
 20
-1435.335
 30
0.0
 11
-351.1523
 21
-1492.001
 31
0.0
  0
ARC
  8
0
 10
-297.8658
 20
-1552.662
 30
0.0
 40
80.7421
 50
131.2966
 51
296.9009
  0
LINE
  8
0
 10
-261.334
 20
-1624.668
 30
0.0
 11
-197.2612
 21
-1598.667
 31
0.0
  0
LINE
  8
0
 10
-197.2612
 20
-1598.667
 30
0.0
 11
-9.915342
 21
-1392.001
 31
0.0
  0
ARC
  8
0
 10
58.42364
 20
-1448.878
 30
0.0
 40
88.91103
 50
7.026714
 51
140.2303
  0
ARC
  8
0
 10
819.7939
 20
-1375.154
 30
0.0
 40
676.0546
 50
185.3339
 51
208.9119
  0
ARC
  8
0
 10
388.7261
 20
-1598.599
 30
0.0
 40
191.1162
 50
212.7556
 51
260.9511
  0
ARC
  8
0
 10
460.6107
 20
-2212.152
 30
0.0
 40
436.8774
 50
76.51227
 51
103.4941
  0
ARC
  8
0
 10
550.3484
 20
-1850.448
 30
0.0
 40
64.28416
 50
26.26067
 51
79.09711
  0
CIRCLE
  8
0
 10
1000
 20
6000
 30
0.0
 40
100
  0
CIRCLE
  8
0
 10
1000
 20
8000
 30
0.0
 40
100
  0
CIRCLE
  8
0
 10
3000
 20
6000
 30
0.0
 40
100
  0
CIRCLE
  8
0
 10
3000
 20
8000
 30
0.0
 40
100
  0
CIRCLE
  8
0
 10
5000
 20
6000
 30
0.0
 40
100
  0
CIRCLE
  8
0
 10
5000
 20
8000
 30
0.0
 40
100
  0
CIRCLE
  8
0
 10
100
 20
100
 30
0.0
 40
125
  0
CIRCLE
  8
0
 10
200
 20
200
 30
0.0
 40
200
  0
CIRCLE
  8
0
 10
300
 20
300
 30
0.0
 40
200
  0
CIRCLE
  8
0
 10
350
 20
350
 30
0.0
 40
200
  0
CIRCLE
  8
0
 10
360
 20
360
 30
0.0
 40
200
  0
CIRCLE
  8
0
 10
370
 20
370
 30
0.0
 40
200
  0
ENDSEC
  0
EOF
