  0
SECTION
  2
ENTITIES
  0
LINE
  8
0
 10
0
 20
400.05
 30
0.0
 11
380.8613
 21
0
 31
0.0
  0
LINE
  8
0
 10
380.8613
 20
0
 30
0.0
 11
761.7227
 21
400.05
 31
0.0
  0
LINE
  8
0
 10
761.7227
 20
400.05
 30
0.0
 11
761.7227
 21
0
 31
0.0
  0
LINE
  8
0
 10
761.7227
 20
0
 30
0.0
 11
380.8613
 21
-400.05
 31
0.0
  0
LINE
  8
0
 10
380.8613
 20
-400.05
 30
0.0
 11
0
 21
0
 31
0.0
  0
LINE
  8
0
 10
0
 20
0
 30
0.0
 11
0
 21
-400.05
 31
0.0
  0
CIRCLE
  8
0
 10
1000
 20
7000
 30
0.0
 40
100
  0
CIRCLE
  8
0
 10
2500
 20
7000
 30
0.0
 40
100
  0
CIRCLE
  8
0
 10
4000
 20
7000
 30
0.0
 40
100
  0
CIRCLE
  8
0
 10
100
 20
100
 30
0.0
 40
127
  0
CIRCLE
  8
0
 10
200
 20
200
 30
0.0
 40
200
  0
CIRCLE
  8
0
 10
300
 20
300
 30
0.0
 40
200
  0
CIRCLE
  8
0
 10
350
 20
350
 30
0.0
 40
200
  0
CIRCLE
  8
0
 10
360
 20
360
 30
0.0
 40
200
  0
CIRCLE
  8
0
 10
370
 20
370
 30
0.0
 40
200
  0
ENDSEC
  0
EOF
