  0
SECTION
  2
ENTITIES
  0
ARC
  8
0
 10
95.61458
 20
262.9633
 30
0.0
 40
158.6388
 50
315.1077
 51
356.761
  0
LINE
  8
0
 10
207.9993
 20
150.9993
 30
0.0
 11
-80.99923
 21
-151.0012
 31
0.0
  0
ARC
  8
0
 10
31.38472
 20
-262.966
 30
0.0
 40
158.6388
 50
135.1072
 51
176.7604
  0
ARC
  8
0
 10
31.38478
 20
-245.0373
 30
0.0
 40
158.6388
 50
183.2394
 51
224.8926
  0
LINE
  8
0
 10
-80.99923
 20
-357.0004
 30
0.0
 11
207.9993
 21
-659.0009
 31
0.0
  0
ARC
  8
0
 10
95.61458
 20
-770.9649
 30
0.0
 40
158.6388
 50
3.239311
 51
44.89259
  0
CIRCLE
  8
0
 10
1000
 20
7000
 30
0.0
 40
100
  0
CIRCLE
  8
0
 10
2500
 20
8000
 30
0.0
 40
100
  0
CIRCLE
  8
0
 10
4000
 20
7000
 30
0.0
 40
100
  0
CIRCLE
  8
0
 10
100
 20
100
 30
0.0
 40
125
  0
CIRCLE
  8
0
 10
200
 20
200
 30
0.0
 40
200
  0
CIRCLE
  8
0
 10
300
 20
300
 30
0.0
 40
200
  0
CIRCLE
  8
0
 10
350
 20
350
 30
0.0
 40
200
  0
CIRCLE
  8
0
 10
360
 20
360
 30
0.0
 40
200
  0
CIRCLE
  8
0
 10
370
 20
370
 30
0.0
 40
200
  0
ENDSEC
  0
EOF
