  0
SECTION
  2
ENTITIES
  0
ARC
  8
0
 10
58.17417
 20
511.2078
 30
0.0
 40
195.8518
 50
291.5141
 51
359.0618
  0
LINE
  8
0
 10
129.9983
 20
329.0013
 30
0.0
 11
-256.9994
 21
179.0001
 31
0.0
  0
ARC
  8
0
 10
-185.1742
 20
-3.20604
 30
0.0
 40
195.8518
 50
111.5143
 51
179.062
  0
ARC
  8
0
 10
-185.1742
 20
3.206812
 30
0.0
 40
195.8518
 50
180.938
 51
248.4857
  0
LINE
  8
0
 10
-256.9997
 20
-178.9992
 30
0.0
 11
129.9977
 21
-329.001
 31
0.0
  0
ARC
  8
0
 10
58.17327
 20
-511.2074
 30
0.0
 40
195.8518
 50
.938364
 51
68.48604
  0
CIRCLE
  8
0
 10
1000
 20
7000
 30
0.0
 40
100
  0
CIRCLE
  8
0
 10
2500
 20
8000
 30
0.0
 40
100
  0
CIRCLE
  8
0
 10
4000
 20
7000
 30
0.0
 40
100
  0
CIRCLE
  8
0
 10
100
 20
100
 30
0.0
 40
125
  0
CIRCLE
  8
0
 10
200
 20
200
 30
0.0
 40
200
  0
CIRCLE
  8
0
 10
300
 20
300
 30
0.0
 40
200
  0
CIRCLE
  8
0
 10
350
 20
350
 30
0.0
 40
200
  0
CIRCLE
  8
0
 10
360
 20
360
 30
0.0
 40
200
  0
CIRCLE
  8
0
 10
370
 20
370
 30
0.0
 40
200
  0
ENDSEC
  0
EOF
