  0
SECTION
  2
ENTITIES
  0
LINE
  8
0
 10
444.5114
 20
1651
 30
0.0
 11
698.5575
 21
1143
 31
0.0
  0
LINE
  8
0
 10
698.5575
 20
1143
 30
0.0
 11
952.5113
 21
635
 31
0.0
  0
LINE
  8
0
 10
952.5113
 20
635
 30
0.0
 11
698.5575
 21
127
 31
0.0
  0
LINE
  8
0
 10
698.5575
 20
127
 30
0.0
 11
444.5114
 21
635
 31
0.0
  0
LINE
  8
0
 10
444.5114
 20
635
 30
0.0
 11
190.4654
 21
127
 31
0.0
  0
LINE
  8
0
 10
190.4654
 20
127
 30
0.0
 11
-63.48853
 21
635
 31
0.0
  0
LINE
  8
0
 10
-63.48853
 20
635
 30
0.0
 11
190.4654
 21
1143
 31
0.0
  0
LINE
  8
0
 10
190.4654
 20
1143
 30
0.0
 11
-63.48853
 21
635
 31
0.0
  0
LINE
  8
0
 10
-63.48853
 20
635
 30
0.0
 11
-317.5345
 21
1143
 31
0.0
  0
LINE
  8
0
 10
-317.5345
 20
1143
 30
0.0
 11
-571.5805
 21
635
 31
0.0
  0
LINE
  8
0
 10
-571.5805
 20
635
 30
0.0
 11
-825.5344
 21
127
 31
0.0
  0
LINE
  8
0
 10
-825.5344
 20
127
 30
0.0
 11
-571.4885
 21
-381
 31
0.0
  0
LINE
  8
0
 10
-571.5805
 20
-381
 30
0.0
 11
-825.5344
 21
-888.9999
 31
0.0
  0
LINE
  8
0
 10
-825.5344
 20
-888.9999
 30
0.0
 11
-571.5805
 21
-381
 31
0.0
  0
LINE
  8
0
 10
-571.5805
 20
-381
 30
0.0
 11
-317.5345
 21
127
 31
0.0
  0
LINE
  8
0
 10
-317.5345
 20
127
 30
0.0
 11
-63.48853
 21
-381
 31
0.0
  0
LINE
  8
0
 10
-63.48853
 20
-381
 30
0.0
 11
190.4654
 21
127
 31
0.0
  0
LINE
  8
0
 10
190.4654
 20
127
 30
0.0
 11
-63.48853
 21
-381
 31
0.0
  0
LINE
  8
0
 10
-63.48853
 20
-381
 30
0.0
 11
190.4654
 21
-888.9999
 31
0.0
  0
LINE
  8
0
 10
190.4654
 20
-888.9999
 30
0.0
 11
444.5114
 21
-381
 31
0.0
  0
CIRCLE
  8
0
 10
1000
 20
7000
 30
0.0
 40
100
  0
CIRCLE
  8
0
 10
4000
 20
7000
 30
0.0
 40
100
  0
CIRCLE
  8
0
 10
7000
 20
7000
 30
0.0
 40
100
  0
CIRCLE
  8
0
 10
100
 20
100
 30
0.0
 40
128
  0
CIRCLE
  8
0
 10
200
 20
200
 30
0.0
 40
200
  0
CIRCLE
  8
0
 10
300
 20
300
 30
0.0
 40
200
  0
CIRCLE
  8
0
 10
350
 20
350
 30
0.0
 40
200
  0
CIRCLE
  8
0
 10
360
 20
360
 30
0.0
 40
200
  0
CIRCLE
  8
0
 10
370
 20
370
 30
0.0
 40
200
  0
ENDSEC
  0
EOF
