  0
SECTION
  2
ENTITIES
  0
ARC
  8
0
 10
-47.09345
 20
1572.033
 30
0.0
 40
683.8097
 50
309.8425
 51
355.9717
  0
ARC
  8
0
 10
639.6644
 20
752.0247
 30
0.0
 40
385.7943
 50
130.1301
 51
178.5183
  0
ARC
  8
0
 10
639.6643
 20
771.979
 30
0.0
 40
385.7943
 50
181.4819
 51
229.8701
  0
ARC
  8
0
 10
-47.12537
 20
-48.01893
 30
0.0
 40
683.8097
 50
4.026079
 51
50.15523
  0
CIRCLE
  8
0
 10
1000
 20
7000
 30
0.0
 40
100
  0
CIRCLE
  8
0
 10
2500
 20
7000
 30
0.0
 40
100
  0
CIRCLE
  8
0
 10
4000
 20
7000
 30
0.0
 40
100
  0
CIRCLE
  8
0
 10
5500
 20
7000
 30
0.0
 40
100
  0
CIRCLE
  8
0
 10
100
 20
100
 30
0.0
 40
125
  0
CIRCLE
  8
0
 10
200
 20
200
 30
0.0
 40
200
  0
CIRCLE
  8
0
 10
300
 20
300
 30
0.0
 40
200
  0
CIRCLE
  8
0
 10
350
 20
350
 30
0.0
 40
200
  0
CIRCLE
  8
0
 10
360
 20
360
 30
0.0
 40
200
  0
CIRCLE
  8
0
 10
370
 20
370
 30
0.0
 40
200
  0
ENDSEC
  0
EOF
