  0
SECTION
  2
ENTITIES
  0
LINE
  8
0
 10
449.9635
 20
254
 30
0.0
 11
449.9635
 21
139.0607
 31
0.0
  0
LINE
  8
0
 10
449.9635
 20
139.0607
 30
0.0
 11
449.9635
 21
-381
 31
0.0
  0
LINE
  8
0
 10
449.9635
 20
-381
 30
0.0
 11
449.9635
 21
-495.9395
 31
0.0
  0
LINE
  8
0
 10
449.9635
 20
-495.9395
 30
0.0
 11
449.9635
 21
-381
 31
0.0
  0
LINE
  8
0
 10
449.9635
 20
-381
 30
0.0
 11
449.9635
 21
139.0607
 31
0.0
  0
LINE
  8
0
 10
449.9635
 20
139.0607
 30
0.0
 11
335.0242
 21
139.0607
 31
0.0
  0
LINE
  8
0
 10
335.0242
 20
139.0607
 30
0.0
 11
-185.0363
 21
139.0607
 31
0.0
  0
LINE
  8
0
 10
-185.0363
 20
139.0607
 30
0.0
 11
-299.9757
 21
139.0607
 31
0.0
  0
LINE
  8
0
 10
-299.9757
 20
139.0607
 30
0.0
 11
-299.9757
 21
254
 31
0.0
  0
LINE
  8
0
 10
-299.9757
 20
254
 30
0.0
 11
-299.9757
 21
139.0607
 31
0.0
  0
LINE
  8
0
 10
-299.9757
 20
139.0607
 30
0.0
 11
-299.9757
 21
-381
 31
0.0
  0
LINE
  8
0
 10
-299.9757
 20
-381
 30
0.0
 11
-299.9757
 21
-495.9395
 31
0.0
  0
LINE
  8
0
 10
-299.9757
 20
-495.9395
 30
0.0
 11
-299.9757
 21
-381
 31
0.0
  0
LINE
  8
0
 10
-299.9757
 20
-381
 30
0.0
 11
-185.0363
 21
-381
 31
0.0
  0
LINE
  8
0
 10
-185.0363
 20
-381
 30
0.0
 11
335.0242
 21
-381
 31
0.0
  0
LINE
  8
0
 10
335.0242
 20
-381
 30
0.0
 11
449.9635
 21
-381
 31
0.0
  0
LINE
  8
0
 10
449.9635
 20
-381
 30
0.0
 11
335.0242
 21
-381
 31
0.0
  0
LINE
  8
0
 10
335.0242
 20
-381
 30
0.0
 11
335.0242
 21
-495.9393
 31
0.0
  0
LINE
  8
0
 10
335.0242
 20
-495.9393
 30
0.0
 11
335.0242
 21
-1016
 31
0.0
  0
LINE
  8
0
 10
335.0242
 20
-1016
 30
0.0
 11
335.0242
 21
-1130.939
 31
0.0
  0
LINE
  8
0
 10
335.0242
 20
-1130.939
 30
0.0
 11
335.0242
 21
-1016
 31
0.0
  0
LINE
  8
0
 10
335.0242
 20
-1016
 30
0.0
 11
335.0242
 21
-495.9393
 31
0.0
  0
LINE
  8
0
 10
335.0242
 20
-495.9393
 30
0.0
 11
449.9639
 21
-495.9393
 31
0.0
  0
LINE
  8
0
 10
449.9635
 20
-495.9393
 30
0.0
 11
970.0241
 21
-495.9393
 31
0.0
  0
LINE
  8
0
 10
970.0241
 20
-495.9393
 30
0.0
 11
1084.964
 21
-495.9393
 31
0.0
  0
LINE
  8
0
 10
1084.964
 20
-495.9393
 30
0.0
 11
1084.964
 21
-381
 31
0.0
  0
LINE
  8
0
 10
1084.964
 20
-381
 30
0.0
 11
1084.964
 21
-495.9393
 31
0.0
  0
LINE
  8
0
 10
1084.964
 20
-495.9393
 30
0.0
 11
1084.964
 21
-1016
 31
0.0
  0
LINE
  8
0
 10
1084.964
 20
-1016
 30
0.0
 11
1084.964
 21
-1130.939
 31
0.0
  0
LINE
  8
0
 10
1084.964
 20
-1130.939
 30
0.0
 11
1084.964
 21
-1016
 31
0.0
  0
LINE
  8
0
 10
1084.964
 20
-1016
 30
0.0
 11
970.0241
 21
-1016
 31
0.0
  0
LINE
  8
0
 10
970.0241
 20
-1016
 30
0.0
 11
449.9639
 21
-1016
 31
0.0
  0
LINE
  8
0
 10
449.9635
 20
-1016
 30
0.0
 11
335.0242
 21
-1016
 31
0.0
  0
LINE
  8
0
 10
335.0242
 20
-1016
 30
0.0
 11
449.9635
 21
-1016
 31
0.0
  0
CIRCLE
  8
0
 10
1000
 20
7000
 30
0.0
 40
100
  0
CIRCLE
  8
0
 10
3500
 20
7000
 30
0.0
 40
100
  0
CIRCLE
  8
0
 10
6000
 20
7000
 30
0.0
 40
100
  0
CIRCLE
  8
0
 10
8500
 20
7000
 30
0.0
 40
100
  0
CIRCLE
  8
0
 10
100
 20
100
 30
0.0
 40
125
  0
CIRCLE
  8
0
 10
200
 20
200
 30
0.0
 40
200
  0
CIRCLE
  8
0
 10
300
 20
300
 30
0.0
 40
200
  0
CIRCLE
  8
0
 10
350
 20
350
 30
0.0
 40
200
  0
CIRCLE
  8
0
 10
360
 20
360
 30
0.0
 40
200
  0
CIRCLE
  8
0
 10
370
 20
370
 30
0.0
 40
200
  0
ENDSEC
  0
EOF
