  0
SECTION
  2
ENTITIES
  0
ARC
  8
0
 10
-23.86853
 20
517.2919
 30
0.0
 40
278.0251
 50
288.7367
 51
358.085
  0
ARC
  8
0
 10
154.7429
 20
-9.290367
 30
0.0
 40
278.0251
 50
108.7364
 51
178.0847
  0
ARC
  8
0
 10
154.7429
 20
9.290367
 30
0.0
 40
278.0251
 50
181.9154
 51
251.2637
  0
ARC
  8
0
 10
-23.86853
 20
-517.2919
 30
0.0
 40
278.0251
 50
1.915257
 51
71.26357
  0
CIRCLE
  8
0
 10
1000
 20
7000
 30
0.0
 40
100
  0
CIRCLE
  8
0
 10
2000
 20
6000
 30
0.0
 40
100
  0
CIRCLE
  8
0
 10
3000
 20
7000
 30
0.0
 40
100
  0
CIRCLE
  8
0
 10
100
 20
100
 30
0.0
 40
125
  0
CIRCLE
  8
0
 10
200
 20
200
 30
0.0
 40
200
  0
CIRCLE
  8
0
 10
300
 20
300
 30
0.0
 40
200
  0
CIRCLE
  8
0
 10
350
 20
350
 30
0.0
 40
200
  0
CIRCLE
  8
0
 10
360
 20
360
 30
0.0
 40
200
  0
CIRCLE
  8
0
 10
370
 20
370
 30
0.0
 40
200
  0
ENDSEC
  0
EOF
