  0
SECTION
  2
ENTITIES
  0
LINE
  8
0
 10
-367.2411
 20
570.8224
 30
0.0
 11
-260.7783
 21
464.9763
 31
0.0
  0
LINE
  8
0
 10
-260.7783
 20
464.9763
 30
0.0
 11
16.0668
 21
187.5147
 31
0.0
  0
LINE
  8
0
 10
16.0668
 20
187.5147
 30
0.0
 11
122.5296
 21
81.66862
 31
0.0
  0
LINE
  8
0
 10
122.5296
 20
81.66862
 30
0.0
 11
16.0668
 21
187.5147
 31
0.0
  0
LINE
  8
0
 10
16.0668
 20
187.5147
 30
0.0
 11
292.9119
 21
464.9763
 31
0.0
  0
LINE
  8
0
 10
292.9119
 20
464.9763
 30
0.0
 11
399.3746
 21
570.8224
 31
0.0
  0
LINE
  8
0
 10
399.3746
 20
570.8224
 30
0.0
 11
505.8374
 21
464.1803
 31
0.0
  0
LINE
  8
0
 10
505.8374
 20
464.1803
 30
0.0
 11
16.0668
 21
-24.97349
 31
0.0
  0
LINE
  8
0
 10
16.0668
 20
-24.97349
 30
0.0
 11
122.5296
 21
-130.8196
 31
0.0
  0
LINE
  8
0
 10
122.5296
 20
-130.8196
 30
0.0
 11
16.0668
 21
-24.97349
 31
0.0
  0
LINE
  8
0
 10
16.0668
 20
-24.97349
 30
0.0
 11
-260.7783
 21
252.4884
 31
0.0
  0
LINE
  8
0
 10
-260.7783
 20
252.4884
 30
0.0
 11
-367.2411
 21
358.3343
 31
0.0
  0
LINE
  8
0
 10
-367.2411
 20
358.3343
 30
0.0
 11
-260.7783
 21
252.4884
 31
0.0
  0
LINE
  8
0
 10
-260.7783
 20
252.4884
 30
0.0
 11
-367.2411
 21
146.6424
 31
0.0
  0
CIRCLE
  8
0
 10
1000
 20
7000
 30
0.0
 40
100
  0
CIRCLE
  8
0
 10
2500
 20
7000
 30
0.0
 40
100
  0
CIRCLE
  8
0
 10
4000
 20
7000
 30
0.0
 40
100
  0
CIRCLE
  8
0
 10
100
 20
100
 30
0.0
 40
129
  0
CIRCLE
  8
0
 10
200
 20
200
 30
0.0
 40
180
  0
CIRCLE
  8
0
 10
300
 20
300
 30
0.0
 40
197
  0
CIRCLE
  8
0
 10
350
 20
350
 30
0.0
 40
202
  0
CIRCLE
  8
0
 10
360
 20
360
 30
0.0
 40
200
  0
CIRCLE
  8
0
 10
370
 20
370
 30
0.0
 40
200
  0
ENDSEC
  0
EOF
