  0
SECTION
  2
ENTITIES
  0
ARC
  8
0
 10
630.5138
 20
-363.914
 30
0.0
 40
655.4254
 50
125.2327
 51
145.49
  0
LINE
  8
0
 10
90.42619
 20
7.418548
 30
0.0
 11
-214.6421
 21
-353.2981
 31
0.0
  0
ARC
  8
0
 10
-732.568
 20
10.01025
 30
0.0
 40
632.6454
 50
304.0213
 51
324.9518
  0
LINE
  8
0
 10
-378.605
 20
-514.3468
 30
0.0
 11
-1388.205
 21
-514.3488
 31
0.0
  0
ARC
  8
0
 10
-1742.177
 20
-1038.7
 30
0.0
 40
632.6454
 50
35.04753
 51
55.97812
  0
LINE
  8
0
 10
-1224.245
 20
-675.4002
 30
0.0
 11
-919.1828
 21
-1036.122
 31
0.0
  0
ARC
  8
0
 10
-379.0892
 20
-664.7978
 30
0.0
 40
655.4254
 50
214.5092
 51
234.7665
  0
LINE
  8
0
 10
-757.2122
 20
-1200.153
 30
0.0
 11
252.3884
 21
-1200.151
 31
0.0
  0
CIRCLE
  8
0
 10
1000
 20
7000
 30
0.0
 40
100
  0
CIRCLE
  8
0
 10
3000
 20
7000
 30
0.0
 40
100
  0
CIRCLE
  8
0
 10
5000
 20
7000
 30
0.0
 40
100
  0
CIRCLE
  8
0
 10
100
 20
100
 30
0.0
 40
125
  0
CIRCLE
  8
0
 10
200
 20
200
 30
0.0
 40
200
  0
CIRCLE
  8
0
 10
300
 20
300
 30
0.0
 40
200
  0
CIRCLE
  8
0
 10
350
 20
350
 30
0.0
 40
200
  0
CIRCLE
  8
0
 10
360
 20
360
 30
0.0
 40
200
  0
CIRCLE
  8
0
 10
370
 20
370
 30
0.0
 40
200
  0
ENDSEC
  0
EOF
