  0
SECTION
  2
ENTITIES
  0
LINE
  8
0
 10
0
 20
90.73923
 30
0.0
 11
100.8601
 21
33.83415
 31
0.0
  0
LINE
  8
0
 10
100.8601
 20
33.83415
 30
0.0
 11
100.8601
 21
-213.7614
 31
0.0
  0
LINE
  8
0
 10
100.8601
 20
-213.7614
 30
0.0
 11
100.8601
 21
33.83415
 31
0.0
  0
LINE
  8
0
 10
100.8601
 20
33.83415
 30
0.0
 11
321.3244
 21
-89.96365
 31
0.0
  0
LINE
  8
0
 10
321.3244
 20
-89.96365
 30
0.0
 11
100.8601
 21
-213.7614
 31
0.0
  0
LINE
  8
0
 10
100.8601
 20
-213.7614
 30
0.0
 11
100.8601
 21
-328.1303
 31
0.0
  0
LINE
  8
0
 10
100.8601
 20
-328.1303
 30
0.0
 11
188.7086
 21
-377.2654
 31
0.0
  0
LINE
  8
0
 10
188.7086
 20
-377.2654
 30
0.0
 11
409.1729
 21
-253.4675
 31
0.0
  0
LINE
  8
0
 10
409.1729
 20
-253.4675
 30
0.0
 11
510.0332
 21
-196.5625
 31
0.0
  0
LINE
  8
0
 10
510.0332
 20
-196.5625
 30
0.0
 11
610.8932
 21
-253.4675
 31
0.0
  0
LINE
  8
0
 10
610.8932
 20
-253.4675
 30
0.0
 11
831.3574
 21
-377.2654
 31
0.0
  0
LINE
  8
0
 10
831.3574
 20
-377.2654
 30
0.0
 11
919.2056
 21
-328.1303
 31
0.0
  0
LINE
  8
0
 10
919.2056
 20
-328.1303
 30
0.0
 11
919.2056
 21
-213.7614
 31
0.0
  0
LINE
  8
0
 10
919.2056
 20
-213.7614
 30
0.0
 11
919.2056
 21
33.83415
 31
0.0
  0
LINE
  8
0
 10
919.2056
 20
33.83415
 30
0.0
 11
1020.066
 21
90.73923
 31
0.0
  0
LINE
  8
0
 10
1020.066
 20
90.73923
 30
0.0
 11
919.2056
 21
33.83415
 31
0.0
  0
LINE
  8
0
 10
919.2056
 20
33.83415
 30
0.0
 11
698.7415
 21
-89.96365
 31
0.0
  0
LINE
  8
0
 10
698.7415
 20
-89.96365
 30
0.0
 11
919.2056
 21
-213.7614
 31
0.0
  0
LINE
  8
0
 10
919.2056
 20
-213.7614
 30
0.0
 11
919.2056
 21
-328.1303
 31
0.0
  0
LINE
  8
0
 10
919.2056
 20
-328.1303
 30
0.0
 11
831.3574
 21
-377.2654
 31
0.0
  0
LINE
  8
0
 10
831.3574
 20
-377.2654
 30
0.0
 11
610.8932
 21
-501.0631
 31
0.0
  0
LINE
  8
0
 10
610.8932
 20
-501.0631
 30
0.0
 11
610.8932
 21
-624.5729
 31
0.0
  0
LINE
  8
0
 10
610.8932
 20
-624.5729
 30
0.0
 11
698.7415
 21
-681.7834
 31
0.0
  0
LINE
  8
0
 10
698.7415
 20
-681.7834
 30
0.0
 11
610.8932
 21
-624.5729
 31
0.0
  0
LINE
  8
0
 10
610.8932
 20
-624.5729
 30
0.0
 11
610.8932
 21
-501.0631
 31
0.0
  0
LINE
  8
0
 10
610.8932
 20
-501.0631
 30
0.0
 11
610.8932
 21
-253.4675
 31
0.0
  0
LINE
  8
0
 10
610.8932
 20
-253.4675
 30
0.0
 11
510.0332
 21
-196.5625
 31
0.0
  0
LINE
  8
0
 10
510.0332
 20
-196.5625
 30
0.0
 11
409.1729
 21
-253.4675
 31
0.0
  0
LINE
  8
0
 10
409.1729
 20
-253.4675
 30
0.0
 11
409.1729
 21
-501.0631
 31
0.0
  0
LINE
  8
0
 10
409.1729
 20
-501.0631
 30
0.0
 11
188.7086
 21
-377.2654
 31
0.0
  0
LINE
  8
0
 10
188.7086
 20
-377.2654
 30
0.0
 11
409.1729
 21
-501.0631
 31
0.0
  0
LINE
  8
0
 10
409.1729
 20
-501.0631
 30
0.0
 11
409.1729
 21
-624.5729
 31
0.0
  0
LINE
  8
0
 10
409.1729
 20
-624.5729
 30
0.0
 11
321.3244
 21
-681.7834
 31
0.0
  0
LINE
  8
0
 10
321.3244
 20
-681.7834
 30
0.0
 11
100.8601
 21
-557.9856
 31
0.0
  0
LINE
  8
0
 10
100.8601
 20
-557.9856
 30
0.0
 11
0
 21
-501.0807
 31
0.0
  0
CIRCLE
  8
0
 10
1000
 20
7000
 30
0.0
 40
100
  0
CIRCLE
  8
0
 10
3000
 20
7000
 30
0.0
 40
100
  0
CIRCLE
  8
0
 10
5000
 20
7000
 30
0.0
 40
100
  0
CIRCLE
  8
0
 10
100
 20
100
 30
0.0
 40
125
  0
CIRCLE
  8
0
 10
200
 20
200
 30
0.0
 40
200
  0
CIRCLE
  8
0
 10
300
 20
300
 30
0.0
 40
200
  0
CIRCLE
  8
0
 10
350
 20
350
 30
0.0
 40
200
  0
CIRCLE
  8
0
 10
360
 20
360
 30
0.0
 40
200
  0
CIRCLE
  8
0
 10
370
 20
370
 30
0.0
 40
200
  0
ENDSEC
  0
EOF
