  0
SECTION
  2
ENTITIES
  0
ARC
  8
0
 10
-214.304
 20
-256.4145
 30
0.0
 40
258.0123
 50
92.77157
 51
186.7287
  0
ARC
  8
0
 10
-214.304
 20
-256.4145
 30
0.0
 40
258.0123
 50
92.77157
 51
186.7287
  0
ARC
  8
0
 10
-225.3073
 20
-246.7944
 30
0.0
 40
248.0945
 50
1.695481
 51
90.34022
  0
ARC
  8
0
 10
270.9592
 20
-248.5034
 30
0.0
 40
248.4453
 50
91.37228
 51
177.9127
  0
ARC
  8
0
 10
261.1944
 20
-256.5726
 30
0.0
 40
256.4698
 50
353.2655
 51
89.1476
  0
ARC
  8
0
 10
49.75119
 20
-234.1718
 30
0.0
 40
469.0895
 50
292.1382
 51
353.5779
  0
ARC
  8
0
 10
479.361
 20
-1078.227
 30
0.0
 40
481.3069
 50
121.6896
 51
161.5933
  0
ARC
  8
0
 10
-434.0053
 20
-1078.226
 30
0.0
 40
481.3069
 50
18.40657
 51
58.31031
  0
ARC
  8
0
 10
-4.393863
 20
-234.1718
 30
0.0
 40
469.0895
 50
186.4222
 51
247.8618
  0
ARC
  8
0
 10
-29773.06
 20
-333.6338
 30
0.0
 40
29302.56
 50
359.8076
 51
9.188806E-02
  0
ARC
  8
0
 10
-13.99916
 20
-280.0034
 30
0.0
 40
481.3069
 50
198.4124
 51
238.3161
  0
ARC
  8
0
 10
-443.5269
 20
-1124.1
 30
0.0
 40
469.0895
 50
6.427984
 51
67.86765
  0
ARC
  8
0
 10
-443.5269
 20
-1124.1
 30
0.0
 40
469.0895
 50
6.427984
 51
67.86765
  0
ARC
  8
0
 10
-13.99916
 20
-280.0034
 30
0.0
 40
481.3069
 50
198.4124
 51
238.3161
  0
ARC
  8
0
 10
-927.3652
 20
-280.093
 30
0.0
 40
481.3069
 50
301.6952
 51
341.5989
  0
ARC
  8
0
 10
-497.6719
 20
-1124.106
 30
0.0
 40
469.0895
 50
112.1439
 51
173.5835
  0
ARC
  8
0
 10
-709.1188
 20
-1101.726
 30
0.0
 40
256.4698
 50
173.2714
 51
269.1535
  0
ARC
  8
0
 10
-718.8824
 20
-1109.795
 30
0.0
 40
248.4453
 50
271.3778
 51
357.9182
  0
ARC
  8
0
 10
-222.3203
 20
-1109.747
 30
0.0
 40
248.4453
 50
182.0931
 51
268.6334
  0
ARC
  8
0
 10
-235.3609
 20
-1099.553
 30
0.0
 40
259.4846
 50
271.895
 51
6.189438
  0
ARC
  8
0
 10
-235.3609
 20
-1099.553
 30
0.0
 40
259.4846
 50
271.895
 51
6.189438
  0
LINE
  8
0
 10
-226.7801
 20
-1358.896
 30
0.0
 11
-226.7801
 21
-1395.704
 31
0.0
  0
CIRCLE
  8
0
 10
1000
 20
7000
 30
0.0
 40
100
  0
CIRCLE
  8
0
 10
3000
 20
7000
 30
0.0
 40
100
  0
CIRCLE
  8
0
 10
5000
 20
7000
 30
0.0
 40
100
  0
CIRCLE
  8
0
 10
100
 20
100
 30
0.0
 40
125
  0
CIRCLE
  8
0
 10
200
 20
200
 30
0.0
 40
200
  0
CIRCLE
  8
0
 10
300
 20
300
 30
0.0
 40
200
  0
CIRCLE
  8
0
 10
350
 20
350
 30
0.0
 40
200
  0
CIRCLE
  8
0
 10
360
 20
360
 30
0.0
 40
200
  0
CIRCLE
  8
0
 10
370
 20
370
 30
0.0
 40
200
  0
ENDSEC
  0
EOF
