  0
SECTION
  2
ENTITIES
  0
ARC
  8
0
 10
578.0155
 20
752.4745
 30
0.0
 40
117.9961
 50
91.99451
 51
171.2092
  0
LINE
  8
0
 10
461.4055
 20
770.5075
 30
0.0
 11
425.0457
 21
504.5193
 31
0.0
  0
LINE
  8
0
 10
425.0457
 20
504.5193
 30
0.0
 11
461.4055
 21
770.5075
 31
0.0
  0
ARC
  8
0
 10
578.0155
 20
752.4745
 30
0.0
 40
117.9961
 50
91.99451
 51
171.2092
  0
ARC
  8
0
 10
569.643
 20
748.3474
 30
0.0
 40
122.1265
 50
339.9617
 51
87.99825
  0
LINE
  8
0
 10
684.377
 20
706.5018
 30
0.0
 11
502.1675
 21
454.3005
 31
0.0
  0
LINE
  8
0
 10
502.1675
 20
454.3005
 30
0.0
 11
805.0588
 21
520.0139
 31
0.0
  0
ARC
  8
0
 10
771.2962
 20
414.1649
 30
0.0
 40
111.1032
 50
276.8837
 51
72.30893
  0
LINE
  8
0
 10
784.6119
 20
303.8624
 30
0.0
 11
500.087
 21
375.5256
 31
0.0
  0
LINE
  8
0
 10
500.087
 20
375.5256
 30
0.0
 11
580.1503
 21
91.78874
 31
0.0
  0
ARC
  8
0
 10
471.62
 20
94.98249
 30
0.0
 40
108.5771
 50
175.2231
 51
358.3147
  0
LINE
  8
0
 10
363.4201
 20
104.0243
 30
0.0
 11
425.0457
 21
361.0369
 31
0.0
  0
ARC
  8
0
 10
456.605
 20
432.7782
 30
0.0
 40
78.37588
 50
113.7448
 51
246.2551
  0
LINE
  8
0
 10
425.0457
 20
504.5193
 30
0.0
 11
236.6535
 21
736.1653
 31
0.0
  0
ARC
  8
0
 10
156.5394
 20
658.2612
 30
0.0
 40
111.7467
 50
44.19876
 51
245.3242
  0
LINE
  8
0
 10
109.8866
 20
556.7189
 30
0.0
 11
375.316
 21
442.2917
 31
0.0
  0
LINE
  8
0
 10
375.316
 20
442.2917
 30
0.0
 11
85.35166
 21
324.2544
 31
0.0
  0
ARC
  8
0
 10
140.1149
 20
243.4597
 30
0.0
 40
97.60535
 50
124.1297
 51
314.0907
  0
LINE
  8
0
 10
208.0287
 20
173.3559
 30
0.0
 11
425.0457
 21
361.0369
 31
0.0
  0
LINE
  8
0
 10
425.0457
 20
361.0369
 30
0.0
 11
363.4201
 21
104.0243
 31
0.0
  0
ARC
  8
0
 10
554.421
 20
-39.3309
 30
0.0
 40
238.814
 50
143.1099
 51
210.3211
  0
LINE
  8
0
 10
348.2743
 20
-159.8948
 30
0.0
 11
382.2946
 21
-452.7418
 31
0.0
  0
LINE
  8
0
 10
382.2946
 20
-452.7418
 30
0.0
 11
348.2743
 21
-159.8948
 31
0.0
  0
ARC
  8
0
 10
239.925
 20
-216.4922
 30
0.0
 40
122.2408
 50
27.58076
 51
196.1806
  0
LINE
  8
0
 10
122.5263
 20
-250.5565
 30
0.0
 11
307.0316
 21
-483.7153
 31
0.0
  0
LINE
  8
0
 10
307.0316
 20
-483.7153
 30
0.0
 11
19.92338
 21
-394.1324
 31
0.0
  0
ARC
  8
0
 10
-.5613942
 20
-515.7603
 30
0.0
 40
123.3408
 50
80.43996
 51
266.2161
  0
LINE
  8
0
 10
-8.701338
 20
-638.8322
 30
0.0
 11
292.3503
 21
-561.9916
 31
0.0
  0
LINE
  8
0
 10
292.3503
 20
-561.9916
 30
0.0
 11
90.49579
 21
-768.8762
 31
0.0
  0
ARC
  8
0
 10
172.3022
 20
-845.0013
 30
0.0
 40
111.7467
 50
137.0601
 51
338.1853
  0
LINE
  8
0
 10
276.0467
 20
-886.527
 30
0.0
 11
362.03
 21
-600.5928
 31
0.0
  0
ARC
  8
0
 10
330.4141
 20
-520.9453
 30
0.0
 40
85.69303
 50
291.6505
 51
52.74082
  0
LINE
  8
0
 10
382.2946
 20
-452.7418
 30
0.0
 11
618.0908
 21
-278.1274
 31
0.0
  0
ARC
  8
0
 10
647.7829
 20
-385.1895
 30
0.0
 40
111.1032
 50
310.0751
 51
105.5005
  0
LINE
  8
0
 10
719.3104
 20
-470.206
 30
0.0
 11
414.2169
 21
-524.7889
 31
0.0
  0
LINE
  8
0
 10
414.2169
 20
-524.7889
 30
0.0
 11
678.7388
 21
-688.5997
 31
0.0
  0
ARC
  8
0
 10
597.063
 20
-772.2823
 30
0.0
 40
116.9346
 50
211.1062
 51
45.69585
  0
LINE
  8
0
 10
496.942
 20
-832.693
 30
0.0
 11
362.03
 21
-600.5928
 31
0.0
  0
LINE
  8
0
 10
362.03
 20
-600.5928
 30
0.0
 11
496.942
 21
-832.693
 31
0.0
  0
ARC
  8
0
 10
328.1989
 20
-1045.638
 30
0.0
 40
271.6978
 50
334.7351
 51
51.60574
  0
CIRCLE
  8
0
 10
1000
 20
7000
 30
0.0
 40
100
  0
CIRCLE
  8
0
 10
3000
 20
7000
 30
0.0
 40
100
  0
CIRCLE
  8
0
 10
5000
 20
7000
 30
0.0
 40
100
  0
CIRCLE
  8
0
 10
100
 20
100
 30
0.0
 40
126
  0
CIRCLE
  8
0
 10
200
 20
200
 30
0.0
 40
200
  0
CIRCLE
  8
0
 10
300
 20
300
 30
0.0
 40
200
  0
CIRCLE
  8
0
 10
350
 20
350
 30
0.0
 40
200
  0
CIRCLE
  8
0
 10
360
 20
360
 30
0.0
 40
200
  0
CIRCLE
  8
0
 10
370
 20
370
 30
0.0
 40
200
  0
ENDSEC
  0
EOF
