  0
SECTION
  2
ENTITIES
  0
ARC
  8
0
 10
-272.2328
 20
544.4155
 30
0.0
 40
546.3466
 50
327.8887
 51
356.178
  0
ARC
  8
0
 10
653.2936
 20
-36.42689
 30
0.0
 40
546.3466
 50
147.8884
 51
176.1777
  0
ARC
  8
0
 10
653.2935
 20
36.41866
 30
0.0
 40
546.3466
 50
183.8226
 51
212.1119
  0
ARC
  8
0
 10
-272.2407
 20
-544.4175
 30
0.0
 40
546.3466
 50
3.821447
 51
32.11077
  0
CIRCLE
  8
0
 10
1000
 20
7000
 30
0.0
 40
100
  0
CIRCLE
  8
0
 10
1500
 20
8000
 30
0.0
 40
100
  0
CIRCLE
  8
0
 10
2000
 20
7000
 30
0.0
 40
100
  0
CIRCLE
  8
0
 10
100
 20
100
 30
0.0
 40
125
  0
CIRCLE
  8
0
 10
200
 20
200
 30
0.0
 40
200
  0
CIRCLE
  8
0
 10
300
 20
300
 30
0.0
 40
200
  0
CIRCLE
  8
0
 10
350
 20
350
 30
0.0
 40
200
  0
CIRCLE
  8
0
 10
360
 20
360
 30
0.0
 40
200
  0
CIRCLE
  8
0
 10
370
 20
370
 30
0.0
 40
200
  0
ENDSEC
  0
EOF
