  0
SECTION
  2
ENTITIES
  0
ARC
  8
0
 10
-119.6645
 20
787.1288
 30
0.0
 40
374.509
 50
307.2455
 51
356.153
  0
LINE
  8
0
 10
106.9988
 20
489.0001
 30
0.0
 11
-230.1735
 21
273.002
 31
0.0
  0
ARC
  8
0
 10
-3.510491
 20
-25.12695
 30
0.0
 40
374.509
 50
127.2453
 51
176.1528
  0
ARC
  8
0
 10
-3.510325
 20
25.12865
 30
0.0
 40
374.509
 50
183.847
 51
232.7544
  0
LINE
  8
0
 10
-230.1754
 20
-272.9987
 30
0.0
 11
106.9956
 21
-488.9991
 31
0.0
  0
ARC
  8
0
 10
-119.6697
 20
-787.1263
 30
0.0
 40
374.509
 50
3.846948
 51
52.75442
  0
CIRCLE
  8
0
 10
1000
 20
7000
 30
0.0
 40
100
  0
CIRCLE
  8
0
 10
2500
 20
8000
 30
0.0
 40
100
  0
CIRCLE
  8
0
 10
4000
 20
7000
 30
0.0
 40
100
  0
CIRCLE
  8
0
 10
100
 20
100
 30
0.0
 40
128
  0
CIRCLE
  8
0
 10
200
 20
200
 30
0.0
 40
188
  0
CIRCLE
  8
0
 10
300
 20
300
 30
0.0
 40
200
  0
CIRCLE
  8
0
 10
350
 20
350
 30
0.0
 40
200
  0
CIRCLE
  8
0
 10
360
 20
360
 30
0.0
 40
200
  0
CIRCLE
  8
0
 10
370
 20
370
 30
0.0
 40
200
  0
ENDSEC
  0
EOF
