  0
SECTION
  2
ENTITIES
  0
ARC
  8
0
 10
167.1132
 20
404.3911
 30
0.0
 40
215.1646
 50
276.2403
 51
353.7596
  0
ARC
  8
0
 10
213.8871
 20
-23.38796
 30
0.0
 40
215.1646
 50
96.23997
 51
173.7594
  0
ARC
  8
0
 10
-213.8924
 20
23.39111
 30
0.0
 40
215.1646
 50
276.2403
 51
353.7596
  0
ARC
  8
0
 10
-167.1185
 20
-404.388
 30
0.0
 40
215.1646
 50
96.23997
 51
173.7594
  0
ARC
  8
0
 10
-167.1185
 20
-357.6083
 30
0.0
 40
215.1646
 50
186.2408
 51
263.7601
  0
ARC
  8
0
 10
-213.8924
 20
-785.3874
 30
0.0
 40
215.1646
 50
6.240621
 51
83.76002
  0
ARC
  8
0
 10
213.8871
 20
-738.6084
 30
0.0
 40
215.1646
 50
186.2408
 51
263.7601
  0
ARC
  8
0
 10
167.1132
 20
-1166.387
 30
0.0
 40
215.1646
 50
6.240638
 51
83.76002
  0
CIRCLE
  8
0
 10
1000
 20
7000
 30
0.0
 40
100
  0
CIRCLE
  8
0
 10
1000
 20
8000
 30
0.0
 40
100
  0
CIRCLE
  8
0
 10
2500
 20
7000
 30
0.0
 40
100
  0
CIRCLE
  8
0
 10
2500
 20
8000
 30
0.0
 40
100
  0
CIRCLE
  8
0
 10
4000
 20
7000
 30
0.0
 40
100
  0
CIRCLE
  8
0
 10
4000
 20
8000
 30
0.0
 40
100
  0
CIRCLE
  8
0
 10
100
 20
100
 30
0.0
 40
125
  0
CIRCLE
  8
0
 10
200
 20
200
 30
0.0
 40
200
  0
CIRCLE
  8
0
 10
300
 20
300
 30
0.0
 40
200
  0
CIRCLE
  8
0
 10
350
 20
350
 30
0.0
 40
200
  0
CIRCLE
  8
0
 10
360
 20
360
 30
0.0
 40
200
  0
CIRCLE
  8
0
 10
370
 20
370
 30
0.0
 40
200
  0
ENDSEC
  0
EOF
