  0
SECTION
  2
ENTITIES
  0
LINE
  8
0
 10
5482.208
 20
1941.372
 30
0.0
 11
5312.208
 21
1941.372
 31
0.0
  0
LINE
  8
0
 10
5312.208
 20
1941.372
 30
0.0
 11
4974.21
 21
1389.371
 31
0.0
  0
LINE
  8
0
 10
4974.21
 20
1389.371
 30
0.0
 11
4804.21
 21
1389.371
 31
0.0
  0
LINE
  8
0
 10
4804.21
 20
1389.371
 30
0.0
 11
4804.21
 21
1359.371
 31
0.0
  0
LINE
  8
0
 10
4804.21
 20
1359.371
 30
0.0
 11
4944.21
 21
1359.371
 31
0.0
  0
LINE
  8
0
 10
4944.21
 20
1359.371
 30
0.0
 11
4944.21
 21
1329.371
 31
0.0
  0
LINE
  8
0
 10
4944.21
 20
1329.371
 30
0.0
 11
4804.21
 21
1329.371
 31
0.0
  0
LINE
  8
0
 10
4804.21
 20
1329.371
 30
0.0
 11
4804.21
 21
1299.371
 31
0.0
  0
LINE
  8
0
 10
4804.21
 20
1299.371
 30
0.0
 11
4944.21
 21
1299.371
 31
0.0
  0
LINE
  8
0
 10
4944.21
 20
1299.371
 30
0.0
 11
4944.21
 21
1269.371
 31
0.0
  0
LINE
  8
0
 10
4944.21
 20
1269.371
 30
0.0
 11
4804.21
 21
1269.371
 31
0.0
  0
LINE
  8
0
 10
4804.21
 20
1269.371
 30
0.0
 11
4804.21
 21
1239.371
 31
0.0
  0
LINE
  8
0
 10
4804.21
 20
1239.371
 30
0.0
 11
4944.21
 21
1239.371
 31
0.0
  0
LINE
  8
0
 10
4944.21
 20
1239.371
 30
0.0
 11
4944.21
 21
1209.371
 31
0.0
  0
LINE
  8
0
 10
4944.21
 20
1209.371
 30
0.0
 11
4804.21
 21
1209.371
 31
0.0
  0
LINE
  8
0
 10
4804.21
 20
1209.371
 30
0.0
 11
4804.21
 21
1179.371
 31
0.0
  0
LINE
  8
0
 10
4804.21
 20
1179.371
 30
0.0
 11
4974.21
 21
1179.371
 31
0.0
  0
LINE
  8
0
 10
4974.21
 20
1179.371
 30
0.0
 11
5312.208
 21
627.3716
 31
0.0
  0
LINE
  8
0
 10
5312.208
 20
627.3716
 30
0.0
 11
5482.208
 21
627.3716
 31
0.0
  0
LINE
  8
0
 10
5482.208
 20
627.3716
 30
0.0
 11
5482.208
 21
417.3716
 31
0.0
  0
CIRCLE
  8
0
 10
1000
 20
7000
 30
0.0
 40
100
  0
CIRCLE
  8
0
 10
2000
 20
8000
 30
0.0
 40
100
  0
CIRCLE
  8
0
 10
3000
 20
7000
 30
0.0
 40
100
  0
CIRCLE
  8
0
 10
100
 20
100
 30
0.0
 40
125
  0
CIRCLE
  8
0
 10
200
 20
200
 30
0.0
 40
200
  0
CIRCLE
  8
0
 10
300
 20
300
 30
0.0
 40
200
  0
CIRCLE
  8
0
 10
350
 20
350
 30
0.0
 40
200
  0
CIRCLE
  8
0
 10
360
 20
360
 30
0.0
 40
200
  0
CIRCLE
  8
0
 10
370
 20
370
 30
0.0
 40
200
  0
ENDSEC
  0
EOF
