  0
SECTION
  2
ENTITIES
  0
ARC
  8
0
 10
4946.795
 20
2217.336
 30
0.0
 40
253.9064
 50
180
 51
226.7704
  0
LINE
  8
0
 10
4772.884
 20
2032.336
 30
0.0
 11
5120.882
 21
1640.337
 31
0.0
  0
ARC
  8
0
 10
4946.985
 20
1455.337
 30
0.0
 40
253.9064
 50
0
 51
46.77044
  0
ARC
  8
0
 10
4946.985
 20
1455.337
 30
0.0
 40
253.9064
 50
313.2296
 51
360
  0
LINE
  8
0
 10
5120.882
 20
1270.337
 30
0.0
 11
4772.884
 21
878.3361
 31
0.0
  0
ARC
  8
0
 10
4946.795
 20
693.336
 30
0.0
 40
253.9064
 50
133.2296
 51
180
  0
CIRCLE
  8
0
 10
1000
 20
7000
 30
0.0
 40
100
  0
CIRCLE
  8
0
 10
2000
 20
8000
 30
0.0
 40
100
  0
CIRCLE
  8
0
 10
3000
 20
7000
 30
0.0
 40
100
  0
CIRCLE
  8
0
 10
100
 20
100
 30
0.0
 40
125
  0
CIRCLE
  8
0
 10
200
 20
200
 30
0.0
 40
200
  0
CIRCLE
  8
0
 10
300
 20
300
 30
0.0
 40
200
  0
CIRCLE
  8
0
 10
350
 20
350
 30
0.0
 40
200
  0
CIRCLE
  8
0
 10
360
 20
360
 30
0.0
 40
200
  0
CIRCLE
  8
0
 10
370
 20
370
 30
0.0
 40
200
  0
ENDSEC
  0
EOF
