  0
SECTION
  2
ENTITIES
  0
ARC
  8
0
 10
5376.306
 20
2375.175
 30
0.0
 40
484.2549
 50
180.2903
 51
232.358
  0
ARC
  8
0
 10
4784.811
 20
1608.27
 30
0.0
 40
484.2549
 50
.2901325
 51
52.3579
  0
ARC
  8
0
 10
4784.811
 20
1613.174
 30
0.0
 40
484.2549
 50
307.6421
 51
359.7099
  0
ARC
  8
0
 10
5376.306
 20
846.2686
 30
0.0
 40
484.2549
 50
127.6421
 51
179.7098
  0
CIRCLE
  8
0
 10
1000
 20
7000
 30
0.0
 40
100
  0
CIRCLE
  8
0
 10
2000
 20
8000
 30
0.0
 40
100
  0
CIRCLE
  8
0
 10
3000
 20
7000
 30
0.0
 40
100
  0
CIRCLE
  8
0
 10
100
 20
100
 30
0.0
 40
125
  0
CIRCLE
  8
0
 10
200
 20
200
 30
0.0
 40
200
  0
CIRCLE
  8
0
 10
300
 20
300
 30
0.0
 40
200
  0
CIRCLE
  8
0
 10
350
 20
350
 30
0.0
 40
200
  0
CIRCLE
  8
0
 10
360
 20
360
 30
0.0
 40
200
  0
CIRCLE
  8
0
 10
370
 20
370
 30
0.0
 40
200
  0
ENDSEC
  0
EOF
