  0
SECTION
  2
ENTITIES
  0
ARC
  8
0
 10
388.7138
 20
758.9122
 30
0.0
 40
119.3254
 50
310.3674
 51
1.481007
  0
LINE
  8
0
 10
465.9992
 20
667.9971
 30
0.0
 11
421.3325
 21
632.722
 31
0.0
  0
ARC
  8
0
 10
531.2954
 20
470.0814
 30
0.0
 40
196.3256
 50
124.0627
 51
168.8645
  0
ARC
  8
0
 10
146.0365
 20
545.914
 30
0.0
 40
196.3256
 50
304.063
 51
348.8647
  0
LINE
  8
0
 10
255.9994
 20
383.2735
 30
0.0
 11
211.3329
 21
347.9984
 31
0.0
  0
ARC
  8
0
 10
288.6182
 20
257.0833
 30
0.0
 40
119.3254
 50
130.3674
 51
181.481
  0
ARC
  8
0
 10
50.04718
 20
250.9102
 30
0.0
 40
119.3254
 50
310.3674
 51
1.481007
  0
LINE
  8
0
 10
127.3325
 20
159.9951
 30
0.0
 11
82.66597
 21
124.7199
 31
0.0
  0
ARC
  8
0
 10
192.6289
 20
-37.92072
 30
0.0
 40
196.3256
 50
124.0627
 51
168.8645
  0
ARC
  8
0
 10
-192.6301
 20
37.91208
 30
0.0
 40
196.3256
 50
304.063
 51
348.8647
  0
LINE
  8
0
 10
-82.6672
 20
-124.7285
 30
0.0
 11
-127.3337
 21
-160.0037
 31
0.0
  0
ARC
  8
0
 10
-50.04841
 20
-250.9187
 30
0.0
 40
119.3254
 50
130.3674
 51
181.481
  0
ARC
  8
0
 10
-50.04841
 20
-257.0865
 30
0.0
 40
119.3254
 50
178.519
 51
229.6326
  0
LINE
  8
0
 10
-127.3339
 20
-348.0014
 30
0.0
 11
-82.66751
 21
-383.2767
 31
0.0
  0
ARC
  8
0
 10
-192.6309
 20
-545.917
 30
0.0
 40
196.3256
 50
11.13544
 51
55.93714
  0
ARC
  8
0
 10
192.6284
 20
-470.0852
 30
0.0
 40
196.3256
 50
191.1355
 51
235.9373
  0
LINE
  8
0
 10
82.66504
 20
-632.7255
 30
0.0
 11
127.3314
 21
-668.0007
 31
0.0
  0
ARC
  8
0
 10
50.04597
 20
-758.9156
 30
0.0
 40
119.3254
 50
358.5188
 51
49.63273
  0
ARC
  8
0
 10
288.6169
 20
-765.0892
 30
0.0
 40
119.3254
 50
178.519
 51
229.6326
  0
LINE
  8
0
 10
211.3315
 20
-856.0043
 30
0.0
 11
255.9978
 21
-891.2795
 31
0.0
  0
ARC
  8
0
 10
146.0345
 20
-1053.92
 30
0.0
 40
196.3256
 50
11.13544
 51
55.93714
  0
ARC
  8
0
 10
531.2938
 20
-978.0881
 30
0.0
 40
196.3256
 50
191.1355
 51
235.9373
  0
LINE
  8
0
 10
421.3305
 20
-1140.729
 30
0.0
 11
465.9968
 21
-1176.004
 31
0.0
  0
ARC
  8
0
 10
388.7114
 20
-1266.919
 30
0.0
 40
119.3254
 50
358.5188
 51
49.63272
  0
CIRCLE
  8
0
 10
1000
 20
6000
 30
0.0
 40
100
  0
CIRCLE
  8
0
 10
1000
 20
8000
 30
0.0
 40
100
  0
CIRCLE
  8
0
 10
2500
 20
6000
 30
0.0
 40
100
  0
CIRCLE
  8
0
 10
2500
 20
8000
 30
0.0
 40
100
  0
CIRCLE
  8
0
 10
4000
 20
6000
 30
0.0
 40
100
  0
CIRCLE
  8
0
 10
4000
 20
8000
 30
0.0
 40
100
  0
CIRCLE
  8
0
 10
100
 20
100
 30
0.0
 40
128
  0
CIRCLE
  8
0
 10
200
 20
200
 30
0.0
 40
205
  0
CIRCLE
  8
0
 10
300
 20
300
 30
0.0
 40
200
  0
CIRCLE
  8
0
 10
350
 20
350
 30
0.0
 40
200
  0
CIRCLE
  8
0
 10
360
 20
360
 30
0.0
 40
200
  0
CIRCLE
  8
0
 10
370
 20
370
 30
0.0
 40
200
  0
ENDSEC
  0
EOF
