  0
SECTION
  2
ENTITIES
  0
ARC
  8
0
 10
329.072
 20
757.3726
 30
0.0
 40
178.9878
 50
310.3673
 51
1.481045
  0
LINE
  8
0
 10
444.9993
 20
620.9999
 30
0.0
 11
317.0004
 21
521.9985
 31
0.0
  0
ARC
  8
0
 10
432.9281
 20
385.6262
 30
0.0
 40
178.9878
 50
130.3674
 51
181.481
  0
ARC
  8
0
 10
75.07199
 20
376.3743
 30
0.0
 40
178.9878
 50
310.3673
 51
1.481045
  0
LINE
  8
0
 10
190.9993
 20
240.0016
 30
0.0
 11
63.00035
 21
141.0003
 31
0.0
  0
ARC
  8
0
 10
178.9281
 20
4.627958
 30
0.0
 40
178.9878
 50
130.3674
 51
181.481
  0
ARC
  8
0
 10
178.9281
 20
-4.627958
 30
0.0
 40
178.9878
 50
178.5191
 51
229.6327
  0
LINE
  8
0
 10
63.00035
 20
-141.0003
 30
0.0
 11
190.9993
 21
-240.0016
 31
0.0
  0
ARC
  8
0
 10
75.07199
 20
-376.3743
 30
0.0
 40
178.9878
 50
358.5189
 51
49.63293
  0
ARC
  8
0
 10
432.9281
 20
-385.6262
 30
0.0
 40
178.9878
 50
178.5191
 51
229.6327
  0
LINE
  8
0
 10
317.0004
 20
-521.9985
 30
0.0
 11
444.9993
 21
-620.9999
 31
0.0
  0
ARC
  8
0
 10
329.072
 20
-757.3726
 30
0.0
 40
178.9878
 50
358.5189
 51
49.63293
  0
CIRCLE
  8
0
 10
1000
 20
7000
 30
0.0
 40
100
  0
CIRCLE
  8
0
 10
1000
 20
8000
 30
0.0
 40
100
  0
CIRCLE
  8
0
 10
2000
 20
7000
 30
0.0
 40
100
  0
CIRCLE
  8
0
 10
2000
 20
8000
 30
0.0
 40
100
  0
CIRCLE
  8
0
 10
100
 20
100
 30
0.0
 40
127
  0
CIRCLE
  8
0
 10
200
 20
200
 30
0.0
 40
200
  0
CIRCLE
  8
0
 10
300
 20
300
 30
0.0
 40
200
  0
CIRCLE
  8
0
 10
350
 20
350
 30
0.0
 40
200
  0
CIRCLE
  8
0
 10
360
 20
360
 30
0.0
 40
200
  0
CIRCLE
  8
0
 10
370
 20
370
 30
0.0
 40
200
  0
ENDSEC
  0
EOF
