  0
SECTION
  2
ENTITIES
  0
ARC
  8
0
 10
4.413027
 20
178.923
 30
0.0
 40
25.83617
 50
99.83476
 51
160.8942
  0
ARC
  8
0
 10
-2.811865
 20
187.4273
 30
0.0
 40
17.18817
 50
180.1608
 51
262.6862
  0
ARC
  8
0
 10
65.66727
 20
440.0512
 30
0.0
 40
278.7774
 50
255.3159
 51
268.4239
  0
LINE
  8
0
 10
57.99961
 20
161.3793
 30
0.0
 11
164.5378
 21
165.8749
 31
0.0
  0
ARC
  8
0
 10
173.6864
 20
128.0768
 30
0.0
 40
38.88938
 50
28.07502
 51
103.6058
  0
ARC
  8
0
 10
172.4997
 20
137.8794
 30
0.0
 40
36.50337
 50
346.5348
 51
13.46522
  0
LINE
  8
0
 10
207.9995
 20
129.3788
 30
0.0
 11
194.9815
 21
105.2833
 31
0.0
  0
ARC
  8
0
 10
159.8938
 20
137.3332
 30
0.0
 40
47.52194
 50
284.7583
 51
317.5908
  0
ARC
  8
0
 10
131.9997
 20
289.8798
 30
0.0
 40
202.4905
 50
264.3317
 51
281.393
  0
LINE
  8
0
 10
111.9993
 20
88.37943
 30
0.0
 11
40.3854
 21
94.93584
 31
0.0
  0
ARC
  8
0
 10
-21.94151
 20
-249.8045
 30
0.0
 40
350.3291
 50
79.75206
 51
92.29824
  0
ARC
  8
0
 10
19.63192
 20
33.44346
 30
0.0
 40
86.92476
 50
129.7831
 51
170.1055
  0
ARC
  8
0
 10
257.1398
 20
84.04705
 30
0.0
 40
325.102
 50
186.2987
 51
206.8162
  0
ARC
  8
0
 10
-8.580282
 20
-53.6427
 30
0.0
 40
26.01664
 50
200.175
 51
266.8715
  0
LINE
  8
0
 10
-10.0001
 20
-79.62054
 30
0.0
 11
24.82175
 21
-83.00748
 31
0.0
  0
ARC
  8
0
 10
9.803939
 20
-33.8297
 30
0.0
 40
51.41965
 50
286.9811
 51
354.6536
  0
ARC
  8
0
 10
185.4126
 20
-59.37506
 30
0.0
 40
126.1317
 50
137.7821
 51
170.5291
  0
ARC
  8
0
 10
118.1694
 20
8.737947
 30
0.0
 40
31.01262
 50
353.7817
 51
147.5473
  0
ARC
  8
0
 10
29.38695
 20
43.58345
 30
0.0
 40
125.5659
 50
320.3011
 51
342.2865
  0
ARC
  8
0
 10
-142.6066
 20
154.4172
 30
0.0
 40
329.6131
 50
311.1561
 51
324.5789
  0
ARC
  8
0
 10
-86.18228
 20
59.17743
 30
0.0
 40
221.6934
 50
300.0995
 51
316.3824
  0
ARC
  8
0
 10
36.55947
 20
-180.0599
 30
0.0
 40
48.82653
 50
103.6973
 51
201.0785
  0
ARC
  8
0
 10
14.91486
 20
-192.1843
 30
0.0
 40
24.52495
 50
192.8061
 51
274.8771
  0
LINE
  8
0
 10
16.99984
 20
-216.6204
 30
0.0
 11
94.99454
 21
-225.6206
 31
0.0
  0
ARC
  8
0
 10
97.22977
 20
-242.1979
 30
0.0
 40
16.72734
 50
19.47773
 51
97.67924
  0
ARC
  8
0
 10
72.99359
 20
-232.7615
 30
0.0
 40
40.19187
 50
299.8524
 51
354.4904
  0
ARC
  8
0
 10
-279.1521
 20
162.5383
 30
0.0
 40
568.8004
 50
298.0132
 51
310.8646
  0
ARC
  8
0
 10
2.200701
 20
-357.3197
 30
0.0
 40
22.69266
 50
128.7478
 51
259.3323
  0
ARC
  8
0
 10
-29.39455
 20
-471.3302
 30
0.0
 40
95.7143
 50
22.55321
 51
73.36879
  0
ARC
  8
0
 10
-123.4928
 20
-521.1172
 30
0.0
 40
201.9537
 50
21.0375
 51
25.35983
  0
ARC
  8
0
 10
52.79967
 20
-452.1202
 30
0.0
 40
12.69232
 50
279.9813
 51
16.00685
  0
ARC
  8
0
 10
29.59085
 20
-429.4836
 30
0.0
 40
43.36104
 50
275.836
 51
305.8726
  0
ARC
  8
0
 10
38.09277
 20
-492.4209
 30
0.0
 40
20.21957
 50
101.679
 51
272.5715
  0
ARC
  8
0
 10
19.95308
 20
-277.4952
 30
0.0
 40
235.8951
 50
274.6311
 51
284.7468
  0
ARC
  8
0
 10
95.33878
 20
-481.7664
 30
0.0
 40
28.36055
 50
237.2554
 51
298.796
  0
ARC
  8
0
 10
117.9988
 20
-382.9012
 30
0.0
 40
124.0458
 50
265.8398
 51
289.791
  0
ARC
  8
0
 10
147.6746
 20
-487.9154
 30
0.0
 40
16.99704
 50
316.4764
 51
27.78532
  0
LINE
  8
0
 10
162.712
 20
-479.9919
 30
0.0
 11
154.4696
 21
-459.598
 31
0.0
  0
LINE
  8
0
 10
154.4696
 20
-459.598
 30
0.0
 11
92.66702
 21
-405.6554
 31
0.0
  0
ARC
  8
0
 10
109.631
 20
-377.8058
 30
0.0
 40
32.60958
 50
159.9377
 51
238.6533
  0
ARC
  8
0
 10
276.5016
 20
-440.9215
 30
0.0
 40
211.0157
 50
138.6889
 51
159.3833
  0
ARC
  8
0
 10
136.9999
 20
-342.7487
 30
0.0
 40
45.30497
 50
84.93481
 51
114.7949
  0
ARC
  8
0
 10
130.3888
 20
-346.9536
 30
0.0
 40
50.4614
 50
22.52767
 51
77.86135
  0
ARC
  8
0
 10
351.4307
 20
-299.9868
 30
0.0
 40
176.6062
 50
189.002
 51
215.133
  0
ARC
  8
0
 10
231.6362
 20
-356.4389
 30
0.0
 40
51.4616
 50
241.3966
 51
310.4137
  0
ARC
  8
0
 10
196.1108
 20
-383.6594
 30
0.0
 40
69.91855
 50
350.15
 51
21.86518
  0
ARC
  8
0
 10
-438.4951
 20
-704.1168
 30
0.0
 40
780.6105
 50
26.35167
 51
35.87902
  0
ARC
  8
0
 10
93.21199
 20
-299.8592
 30
0.0
 40
113.9849
 50
27.84431
 51
63.1683
  0
ARC
  8
0
 10
62.74685
 20
-355.9134
 30
0.0
 40
177.7652
 50
62.56108
 51
79.59312
  0
ARC
  8
0
 10
92.08282
 20
-161.9697
 30
0.0
 40
19.3034
 50
205.2606
 51
278.2661
  0
ARC
  8
0
 10
126.6226
 20
-154.8398
 30
0.0
 40
54.2206
 50
54.64127
 51
196.4647
  0
ARC
  8
0
 10
78.10363
 20
-218.3027
 30
0.0
 40
134.0853
 50
29.33105
 51
53.42603
  0
ARC
  8
0
 10
275.9173
 20
-108.1399
 30
0.0
 40
92.33711
 50
208.7977
 51
247.7808
  0
ARC
  8
0
 10
268.9998
 20
-132.037
 30
0.0
 40
67.64996
 50
245.5501
 51
294.4497
  0
ARC
  8
0
 10
263.1742
 20
-139.723
 30
0.0
 40
63.63235
 50
302.1111
 51
9.135115
  0
ARC
  8
0
 10
237.4517
 20
-162.7876
 30
0.0
 40
94.55593
 50
20.53426
 51
44.4083
  0
ARC
  8
0
 10
87.18652
 20
-285.3392
 30
0.0
 40
288.1966
 50
40.90651
 51
64.77699
  0
ARC
  8
0
 10
219.3957
 20
14.91961
 30
0.0
 40
40.64114
 50
173.6999
 51
256.633
  0
ARC
  8
0
 10
210.6604
 20
18.82579
 30
0.0
 40
31.66554
 50
94.81989
 51
178.9981
  0
ARC
  8
0
 10
204.9619
 20
-57.78428
 30
0.0
 40
108.2062
 50
39.04585
 51
88.39136
  0
ARC
  8
0
 10
572.822
 20
311.5547
 30
0.0
 40
413.8379
 50
226.6991
 51
233.3859
  0
ARC
  8
0
 10
344.4995
 20
-5.870318
 30
0.0
 40
23.66065
 50
218.5636
 51
321.4344
  0
ARC
  8
0
 10
339.857
 20
-5.977621
 30
0.0
 40
27.3859
 50
327.677
 51
51.24722
  0
ARC
  8
0
 10
270.4997
 20
-91.62098
 30
0.0
 40
137.5914
 50
51.04762
 51
65.29758
  0
ARC
  8
0
 10
423.3615
 20
236.8642
 30
0.0
 40
224.7221
 50
208.7123
 51
244.8896
  0
ARC
  8
0
 10
256.7797
 20
137.8031
 30
0.0
 40
31.78007
 50
143.1302
 51
196.2586
  0
ARC
  8
0
 10
299.9238
 20
97.38145
 30
0.0
 40
90.77816
 50
106.5934
 51
139.055
  0
LINE
  8
0
 10
273.9996
 20
184.379
 30
0.0
 11
340.7631
 21
187.805
 31
0.0
  0
LINE
  8
0
 10
340.7631
 20
187.805
 30
0.0
 11
396.7924
 21
184.7096
 31
0.0
  0
ARC
  8
0
 10
397.708
 20
131.0874
 30
0.0
 40
53.62983
 50
28.13797
 51
90.97815
  0
ARC
  8
0
 10
413.0637
 20
137.8135
 30
0.0
 40
36.9399
 50
304.5237
 51
30.17117
  0
ARC
  8
0
 10
443.6759
 20
73.02634
 30
0.0
 40
35.68979
 50
105.7317
 51
156.2867
  0
ARC
  8
0
 10
465.3726
 20
97.52808
 30
0.0
 40
55.3117
 50
190.5727
 51
242.6953
  0
ARC
  8
0
 10
577.5076
 20
295.0647
 30
0.0
 40
282.4219
 50
240.8636
 51
259.4915
  0
ARC
  8
0
 10
524.0919
 20
-7.82443
 30
0.0
 40
25.27596
 50
18.9395
 51
85.67347
  0
ARC
  8
0
 10
508.5836
 20
5.184451
 30
0.0
 40
39.70704
 50
282.2356
 51
353.0494
  0
ARC
  8
0
 10
624.514
 20
-303.8202
 30
0.0
 40
290.8044
 50
111.698
 51
128.6221
  0
ARC
  8
0
 10
312.726
 20
81.25118
 30
0.0
 40
204.6819
 50
290.3781
 51
309.5291
  0
ARC
  8
0
 10
399.7583
 20
-139.6426
 30
0.0
 40
33.02469
 50
118.5031
 51
266.9474
  0
ARC
  8
0
 10
454.4137
 20
-26.19777
 30
0.0
 40
156.9144
 50
248.9293
 51
277.9069
  0
ARC
  8
0
 10
480.7685
 20
-223.082
 30
0.0
 40
41.73493
 50
51.05986
 51
96.56283
  0
ARC
  8
0
 10
489.6609
 20
-193.1496
 30
0.0
 40
17.52187
 50
274.3806
 51
8.299392
  0
ARC
  8
0
 10
642.8392
 20
-773.4692
 30
0.0
 40
582.9704
 50
105.0973
 51
116.9092
  0
ARC
  8
0
 10
394.2647
 20
-273.0173
 30
0.0
 40
24.68334
 50
128.1987
 51
222.2685
  0
ARC
  8
0
 10
633.1973
 20
-125.4223
 30
0.0
 40
305.142
 50
212.5546
 51
226.4606
  0
ARC
  8
0
 10
448.8869
 20
-310.7191
 30
0.0
 40
44.26094
 50
234.2046
 51
298.4897
  0
ARC
  8
0
 10
287.4348
 20
-156.5771
 30
0.0
 40
265.698
 50
313.402
 51
330.2004
  0
ARC
  8
0
 10
691.2396
 20
-375.9471
 30
0.0
 40
194.0056
 50
124.2688
 51
153.2485
  0
ARC
  8
0
 10
689.1235
 20
-447.1643
 30
0.0
 40
255.124
 50
100.8728
 51
114.8275
  0
ARC
  8
0
 10
638.347
 20
-132.9476
 30
0.0
 40
63.72755
 50
272.3861
 51
342.5793
  0
ARC
  8
0
 10
628.7487
 20
-159.5704
 30
0.0
 40
70.80558
 50
6.115893
 51
38.84269
  0
LINE
  8
0
 10
683.897
 20
-115.1623
 30
0.0
 11
667.3256
 21
-100.1843
 31
0.0
  0
LINE
  8
0
 10
667.3256
 20
-100.1843
 30
0.0
 11
643.2193
 21
-91.00976
 31
0.0
  0
ARC
  8
0
 10
637.4991
 20
-168.45
 30
0.0
 40
77.65125
 50
85.77546
 51
112.3274
  0
LINE
  8
0
 10
607.999
 20
-96.62043
 30
0.0
 11
548.9593
 21
-110.5248
 31
0.0
  0
ARC
  8
0
 10
551.9104
 20
-92.35792
 30
0.0
 40
18.40504
 50
105.4768
 51
260.7727
  0
ARC
  8
0
 10
469.2869
 20
150.0633
 30
0.0
 40
237.7434
 50
289.0792
 51
309.0296
  0
ARC
  8
0
 10
57.95609
 20
625.7996
 30
0.0
 40
866.5587
 50
310.3486
 51
314.5615
  0
ARC
  8
0
 10
652.6066
 20
23.97548
 30
0.0
 40
20.55694
 50
310.6412
 51
37.11484
  0
ARC
  8
0
 10
600.8409
 20
8.459032
 30
0.0
 40
73.65553
 50
22.27609
 51
71.67467
  0
LINE
  8
0
 10
623.9991
 20
78.37929
 30
0.0
 11
522.8246
 21
92.90099
 31
0.0
  0
ARC
  8
0
 10
514.324
 20
112.5822
 30
0.0
 40
21.43857
 50
185.8981
 51
293.3603
  0
ARC
  8
0
 10
540.3459
 20
121.8784
 30
0.0
 40
48.7235
 50
84.51994
 51
193.6509
  0
ARC
  8
0
 10
562.8887
 20
-147.6948
 30
0.0
 40
318.5765
 50
76.73297
 51
93.21905
  0
ARC
  8
0
 10
550.8082
 20
-162.2885
 30
0.0
 40
335.6585
 50
66.43536
 51
75.29743
  0
ARC
  8
0
 10
581.4081
 20
453.5151
 30
0.0
 40
325.0829
 50
288.5818
 51
297.1992
  0
ARC
  8
0
 10
779.8558
 20
70.8568
 30
0.0
 40
105.9818
 50
95.33646
 51
118.0629
  0
ARC
  8
0
 10
766.2588
 20
160.5859
 30
0.0
 40
16.23033
 50
316.3324
 51
76.67487
  0
LINE
  8
0
 10
777.9987
 20
149.3793
 30
0.0
 11
734.4902
 21
93.30083
 31
0.0
  0
LINE
  8
0
 10
734.4902
 20
93.30083
 30
0.0
 11
712.7009
 21
66.91424
 31
0.0
  0
ARC
  8
0
 10
727.1222
 20
54.32045
 30
0.0
 40
19.14578
 50
138.8702
 51
226.7322
  0
ARC
  8
0
 10
807.5307
 20
87.68485
 30
0.0
 40
104.8139
 50
206.8289
 51
251.3421
  0
ARC
  8
0
 10
783.4988
 20
59.21343
 30
0.0
 40
71.46816
 50
262.3612
 51
288.3503
  0
ARC
  8
0
 10
796.4238
 20
1.686862
 30
0.0
 40
14.06827
 50
312.8889
 51
15.21672
  0
ARC
  8
0
 10
739.5907
 20
-7.166946
 30
0.0
 40
71.51701
 50
10.10377
 51
48.47954
  0
ARC
  8
0
 10
841.4055
 20
78.72147
 30
0.0
 40
63.29366
 50
155.0911
 51
210.7298
  0
ARC
  8
0
 10
858.7891
 20
54.06301
 30
0.0
 40
90.70204
 50
109.8441
 51
145.5444
  0
ARC
  8
0
 10
819.9203
 20
35.40715
 30
0.0
 40
104.2854
 50
65.60136
 51
85.55711
  0
ARC
  8
0
 10
845.3145
 20
88.82616
 30
0.0
 40
45.15954
 50
345.3149
 51
66.94593
  0
ARC
  8
0
 10
730.7943
 20
64.65392
 30
0.0
 40
158.715
 50
320.3505
 51
4.598246
  0
ARC
  8
0
 10
650.0787
 20
122.2991
 30
0.0
 40
257.7441
 50
290.181
 51
321.933
  0
ARC
  8
0
 10
747.5494
 20
-140.0746
 30
0.0
 40
22.16927
 50
112.6934
 51
217.6621
  0
ARC
  8
0
 10
824.5226
 20
40.63089
 30
0.0
 40
216.0279
 50
244.0525
 51
260.8042
  0
ARC
  8
0
 10
838.6308
 20
45.42076
 30
0.0
 40
223.399
 50
257.4266
 51
278.3309
  0
LINE
  8
0
 10
870.998
 20
-175.6209
 30
0.0
 11
887.6752
 21
-183.3075
 31
0.0
  0
ARC
  8
0
 10
530.3148
 20
-218.3409
 30
0.0
 40
359.0736
 50
8.723077E-02
 51
5.599068
  0
ARC
  8
0
 10
836.9688
 20
-206.4154
 30
0.0
 40
53.64012
 50
290.083
 51
347.7529
  0
ARC
  8
0
 10
800.6732
 20
-149.0081
 30
0.0
 40
120.8778
 50
272.2351
 51
296.9131
  0
ARC
  8
0
 10
736.6631
 20
-418.7182
 30
0.0
 40
164.0167
 50
65.22808
 51
105.4391
  0
ARC
  8
0
 10
695.1222
 20
-296.9354
 30
0.0
 40
36.3772
 50
93.34515
 51
163.2838
  0
ARC
  8
0
 10
704.9153
 20
-322.1023
 30
0.0
 40
57.11066
 50
141.4001
 51
172.4982
  0
ARC
  8
0
 10
800.5303
 20
-288.4564
 30
0.0
 40
154.4727
 50
189.7611
 51
234.1217
  0
ARC
  8
0
 10
717.9337
 20
-384.787
 30
0.0
 40
29.90446
 50
254.6131
 51
300.2469
  0
ARC
  8
0
 10
701.7045
 20
-332.9018
 30
0.0
 40
83.78218
 50
291.9315
 51
349.1866
  0
ARC
  8
0
 10
813.2896
 20
-357.683
 30
0.0
 40
30.66024
 50
95.23855
 51
162.8076
  0
ARC
  8
0
 10
815.6779
 20
-341.3056
 30
0.0
 40
15.07522
 50
35.18062
 51
110.1287
  0
LINE
  8
0
 10
827.9995
 20
-332.6199
 30
0.0
 11
830.9297
 21
-352.8029
 31
0.0
  0
ARC
  8
0
 10
679.6716
 20
-325.6893
 30
0.0
 40
153.6691
 50
334.1796
 51
349.8375
  0
ARC
  8
0
 10
782.79
 20
-377.8145
 30
0.0
 40
38.19535
 50
285.5029
 51
337.1918
  0
ARC
  8
0
 10
806.3852
 20
-431.441
 30
0.0
 40
21.49697
 50
128.5137
 51
185.8186
  0
ARC
  8
0
 10
831.3615
 20
-414.6164
 30
0.0
 40
50.10627
 50
202.2883
 51
253.343
  0
ARC
  8
0
 10
809.9179
 20
-534.8409
 30
0.0
 40
72.5669
 50
17.83098
 51
84.40041
  0
ARC
  8
0
 10
861.4996
 20
-520.1202
 30
0.0
 40
19.03935
 50
299.9308
 51
23.19991
  0
ARC
  8
0
 10
763.0307
 20
-342.4531
 30
0.0
 40
222.1667
 50
269.9919
 51
299.0765
  0
ARC
  8
0
 10
754.8243
 20
-427.8742
 30
0.0
 40
136.9896
 50
227.3431
 51
273.4208
  0
ARC
  8
0
 10
989.7015
 20
-417.1333
 30
0.0
 40
346.1473
 50
184.4924
 51
198.7886
  0
ARC
  8
0
 10
614.258
 20
-447.1154
 30
0.0
 40
30.4947
 50
5.400758
 51
210.5598
  0
ARC
  8
0
 10
473.0389
 20
-562.0731
 30
0.0
 40
152.0086
 50
16.2172
 51
40.86336
  0
ARC
  8
0
 10
596.4166
 20
-529.4078
 30
0.0
 40
24.61207
 50
259.6596
 51
23.43305
  0
ARC
  8
0
 10
552.5944
 20
-277.0778
 30
0.0
 40
279.3354
 50
250.6412
 51
278.1094
  0
ARC
  8
0
 10
472.5499
 20
-513.5605
 30
0.0
 40
29.82834
 50
145.3932
 51
245.1161
  0
ARC
  8
0
 10
700.9927
 20
-661.0921
 30
0.0
 40
301.7565
 50
121.7957
 51
146.9718
  0
ARC
  8
0
 10
412.0087
 20
-199.4016
 30
0.0
 40
242.9245
 50
302.3513
 51
322.9931
  0
ARC
  8
0
 10
534.5673
 20
-286.1541
 30
0.0
 40
92.94489
 50
320.2231
 51
19.83271
  0
LINE
  8
0
 10
621.9992
 20
-254.6203
 30
0.0
 11
615.3737
 21
-242.664
 31
0.0
  0
LINE
  8
0
 10
615.3737
 20
-242.664
 30
0.0
 11
598.9809
 21
-239.1682
 31
0.0
  0
ARC
  8
0
 10
599.004
 20
-261.7667
 30
0.0
 40
22.59852
 50
90.05855
 51
166.8366
  0
ARC
  8
0
 10
408.6133
 20
-194.1613
 30
0.0
 40
179.597
 50
309.5613
 51
339.6488
  0
ARC
  8
0
 10
410.5126
 20
-247.2715
 30
0.0
 40
141.2005
 50
276.2968
 51
322.8103
  0
ARC
  8
0
 10
410.0839
 20
-434.6856
 30
0.0
 40
49.68328
 50
71.3176
 51
229.7758
  0
ARC
  8
0
 10
331.6122
 20
-504.6966
 30
0.0
 40
56.39774
 50
344.6561
 51
34.66372
  0
ARC
  8
0
 10
354.5074
 20
-517.0243
 30
0.0
 40
31.59901
 50
175.6359
 51
355.288
  0
ARC
  8
0
 10
770.9152
 20
-492.1173
 30
0.0
 40
448.4804
 50
159.4405
 51
182.876
  0
ARC
  8
0
 10
273.6018
 20
-326.1213
 30
0.0
 40
77.86316
 50
353.7346
 51
41.4093
  0
ARC
  8
0
 10
262.5461
 20
-349.1262
 30
0.0
 40
101.8572
 50
47.01007
 51
85.2394
  0
ARC
  8
0
 10
270.2708
 20
-261.7061
 30
0.0
 40
14.10479
 50
87.039
 51
158.9771
  0
ARC
  8
0
 10
330.0418
 20
-242.6805
 30
0.0
 40
74.26202
 50
190.8399
 51
226.581
  0
ARC
  8
0
 10
171.0722
 20
-362.2039
 30
0.0
 40
126.2917
 50
343.2409
 51
31.28572
  0
ARC
  8
0
 10
132.1958
 20
-287.2946
 30
0.0
 40
194.7581
 50
295.8127
 51
325.1372
  0
ARC
  8
0
 10
133.8379
 20
-341.0196
 30
0.0
 40
147.3176
 50
291.9897
 51
304.3675
  0
ARC
  8
0
 10
195.7497
 20
-486.1199
 30
0.0
 40
10.85434
 50
128.4566
 51
255.3242
  0
ARC
  8
0
 10
158.6855
 20
-718.8841
 30
0.0
 40
224.897
 50
59.74505
 51
81.22376
  0
ARC
  8
0
 10
259.7892
 20
-536.7774
 30
0.0
 40
17.23113
 50
340.1814
 51
44.87626
  0
ARC
  8
0
 10
232.0928
 20
-503.1115
 30
0.0
 40
59.06559
 50
262.1248
 51
318.0183
  0
ARC
  8
0
 10
230.4314
 20
-339.4503
 30
0.0
 40
222.2627
 50
254.4909
 51
268.3418
  0
ARC
  8
0
 10
102.1902
 20
-1269.108
 30
0.0
 40
718.7885
 50
84.50676
 51
98.17336
  0
CIRCLE
  8
0
 10
1000
 20
7000
 30
0.0
 40
100
  0
CIRCLE
  8
0
 10
3000
 20
7000
 30
0.0
 40
100
  0
CIRCLE
  8
0
 10
5000
 20
7000
 30
0.0
 40
100
  0
CIRCLE
  8
0
 10
100
 20
100
 30
0.0
 40
125
  0
CIRCLE
  8
0
 10
200
 20
200
 30
0.0
 40
200
  0
CIRCLE
  8
0
 10
300
 20
300
 30
0.0
 40
200
  0
CIRCLE
  8
0
 10
350
 20
350
 30
0.0
 40
200
  0
CIRCLE
  8
0
 10
360
 20
360
 30
0.0
 40
200
  0
CIRCLE
  8
0
 10
370
 20
370
 30
0.0
 40
200
  0
ENDSEC
  0
EOF
