  0
SECTION
  2
ENTITIES
  0
ARC
  8
0
 10
562.4821
 20
113.26
 30
0.0
 40
445.6062
 50
90.46672
 51
179.5331
  0
ARC
  8
0
 10
255.8911
 20
247.6599
 30
0.0
 40
190.8451
 50
223.2524
 51
244.693
  0
ARC
  8
0
 10
162.6745
 20
50.7705
 30
0.0
 40
26.99655
 50
341.2001
 51
64.46828
  0
ARC
  8
0
 10
246.0042
 20
11.4077
 30
0.0
 40
65.40617
 50
152.0433
 51
216.5351
  0
ARC
  8
0
 10
208.107
 20
-9.661435
 30
0.0
 40
23.11024
 50
230.64
 51
341.2503
  0
ARC
  8
0
 10
177.5158
 20
18.35143
 30
0.0
 40
63.32239
 50
325.9651
 51
25.96324
  0
ARC
  8
0
 10
273.9127
 20
64.37012
 30
0.0
 40
43.50027
 50
148.7672
 51
204.8731
  0
ARC
  8
0
 10
263.243
 20
75.42075
 30
0.0
 40
28.91355
 50
88.5955
 51
156.5526
  0
ARC
  8
0
 10
262.7263
 20
47.79199
 30
0.0
 40
56.54689
 50
35.805
 51
88.75822
  0
ARC
  8
0
 10
333.9997
 20
100.7825
 30
0.0
 40
32.28318
 50
218.0756
 51
346.0118
  0
ARC
  8
0
 10
845.9154
 20
99.03005
 30
0.0
 40
480.6278
 50
175.3956
 51
180.7215
  0
ARC
  8
0
 10
393.2369
 20
138.9358
 30
0.0
 40
26.43127
 50
56.84855
 51
182.8695
  0
ARC
  8
0
 10
318.7998
 20
64.60851
 30
0.0
 40
131.1694
 50
31.07714
 51
47.33734
  0
ARC
  8
0
 10
468.8718
 20
162.3085
 30
0.0
 40
48.19699
 50
218.482
 51
295.2025
  0
ARC
  8
0
 10
457.6034
 20
143.7451
 30
0.0
 40
40.47209
 50
321.769
 51
32.69086
  0
ARC
  8
0
 10
649.7804
 20
222.2358
 30
0.0
 40
167.9515
 50
180.2208
 51
199.7059
  0
ARC
  8
0
 10
1202.7
 20
170.3897
 30
0.0
 40
722.685
 50
166.6001
 51
175.9376
  0
ARC
  8
0
 10
729.0795
 20
190.5519
 30
0.0
 40
272.6202
 50
147.2903
 51
165.7126
  0
ARC
  8
0
 10
392.159
 20
271.403
 30
0.0
 40
73.98775
 50
280.5699
 51
349.4299
  0
ARC
  8
0
 10
405.7944
 20
132.2272
 30
0.0
 40
66.44358
 50
90.0546
 51
156.5668
  0
ARC
  8
0
 10
287.5205
 20
182.2429
 30
0.0
 40
61.97649
 50
266.6796
 51
337.625
  0
ARC
  8
0
 10
255.2209
 20
28.14936
 30
0.0
 40
96.58701
 50
72.70782
 51
125.8375
  0
ARC
  8
0
 10
169.2048
 20
201.1595
 30
0.0
 40
99.18684
 50
238.168
 51
287.2819
  0
ARC
  8
0
 10
109.634
 20
571.5079
 30
0.0
 40
454.6745
 50
270.9143
 51
329.079
  0
ARC
  8
0
 10
496.0619
 20
-107.7205
 30
0.0
 40
445.6062
 50
.467256
 51
89.53366
  0
ARC
  8
0
 10
1108.599
 20
-277.1474
 30
0.0
 40
240.4604
 50
133.9698
 51
164.6284
  0
ARC
  8
0
 10
709.5496
 20
-181.6329
 30
0.0
 40
170.1833
 50
333.8906
 51
349.2397
  0
ARC
  8
0
 10
851.4927
 20
-249.8374
 30
0.0
 40
12.76771
 50
189.7482
 51
328.3918
  0
ARC
  8
0
 10
1280.486
 20
-157.4073
 30
0.0
 40
451.5941
 50
178.3714
 51
192.0908
  0
ARC
  8
0
 10
811.9002
 20
-144.3396
 30
0.0
 40
17.17534
 50
359.2225
 51
119.8452
  0
ARC
  8
0
 10
836.2692
 20
-203.1083
 30
0.0
 40
80.68574
 50
114.0768
 51
144.2004
  0
ARC
  8
0
 10
754.6801
 20
-136.1167
 30
0.0
 40
25.54522
 50
239.0745
 51
309.2066
  0
ARC
  8
0
 10
777.8535
 20
-115.4008
 30
0.0
 40
55.99158
 50
171.9606
 51
229.5837
  0
ARC
  8
0
 10
704.8781
 20
-104.4913
 30
0.0
 40
17.80221
 50
350.0418
 51
89.56787
  0
ARC
  8
0
 10
747.2086
 20
-280.4888
 30
0.0
 40
198.3399
 50
102.2835
 51
121.3189
  0
ARC
  8
0
 10
635.4116
 20
-95.96973
 30
0.0
 40
17.40965
 50
178.0911
 51
299.9812
  0
ARC
  8
0
 10
676.5541
 20
-100.1516
 30
0.0
 40
58.73583
 50
100.6778
 51
175.3497
  0
ARC
  8
0
 10
677.0772
 20
-80.08431
 30
0.0
 40
39.34116
 50
36.27658
 51
106.8533
  0
ARC
  8
0
 10
757.9666
 20
-28.438
 30
0.0
 40
56.76986
 50
209.981
 51
276.8885
  0
ARC
  8
0
 10
758.9106
 20
-230.7555
 30
0.0
 40
146.075
 50
61.52666
 51
87.69917
  0
ARC
  8
0
 10
886.8498
 20
10.56046
 30
0.0
 40
127.0724
 50
242.6919
 51
295.5486
  0
ARC
  8
0
 10
948.9026
 20
350.5231
 30
0.0
 40
454.6676
 50
210.921
 51
269.0866
  0
ARC
  8
0
 10
802.2761
 20
186.1143
 30
0.0
 40
253.0759
 50
195.8744
 51
225.5251
  0
ARC
  8
0
 10
609.5123
 20
-14.58011
 30
0.0
 40
25.36573
 50
324.6116
 51
52.45148
  0
ARC
  8
0
 10
611.4707
 20
1.245109
 30
0.0
 40
35.80006
 50
233.4914
 51
301.5291
  0
ARC
  8
0
 10
573.6414
 20
-49.27972
 30
0.0
 40
27.31849
 50
52.76519
 51
127.2349
  0
ARC
  8
0
 10
576.1177
 20
-37.5683
 30
0.0
 40
21.49437
 50
152.1582
 51
235.9141
  0
ARC
  8
0
 10
556.751
 20
-71.56018
 30
0.0
 40
17.76844
 50
288.2945
 51
65.66956
  0
ARC
  8
0
 10
381.5968
 20
501.4885
 30
0.0
 40
616.9835
 50
281.0348
 51
287.0335
  0
ARC
  8
0
 10
52.37523
 20
134.0848
 30
0.0
 40
506.7699
 50
331.9671
 51
358.0558
  0
ARC
  8
0
 10
1024.719
 20
360.0304
 30
0.0
 40
525.4979
 50
182.4171
 51
207.5605
  0
ARC
  8
0
 10
1024.719
 20
360.0304
 30
0.0
 40
525.4979
 50
182.4171
 51
207.5605
  0
CIRCLE
  8
0
 10
1000
 20
7000
 30
0.0
 40
100
  0
CIRCLE
  8
0
 10
2500
 20
7000
 30
0.0
 40
100
  0
CIRCLE
  8
0
 10
100
 20
100
 30
0.0
 40
125
  0
CIRCLE
  8
0
 10
200
 20
200
 30
0.0
 40
200
  0
CIRCLE
  8
0
 10
300
 20
300
 30
0.0
 40
200
  0
CIRCLE
  8
0
 10
350
 20
350
 30
0.0
 40
200
  0
CIRCLE
  8
0
 10
360
 20
360
 30
0.0
 40
200
  0
CIRCLE
  8
0
 10
370
 20
370
 30
0.0
 40
200
  0
ENDSEC
  0
EOF
