  0
SECTION
  2
ENTITIES
  0
LINE
  8
0
 10
63.5
 20
79.375
 30
0.0
 11
47.625
 21
63.5
 31
0.0
  0
LINE
  8
0
 10
47.625
 20
63.5
 30
0.0
 11
31.75
 21
47.625
 31
0.0
  0
LINE
  8
0
 10
31.75
 20
47.625
 30
0.0
 11
15.875
 21
31.75
 31
0.0
  0
LINE
  8
0
 10
15.875
 20
31.75
 30
0.0
 11
0
 21
15.875
 31
0.0
  0
LINE
  8
0
 10
0
 20
15.875
 30
0.0
 11
15.875
 21
0
 31
0.0
  0
LINE
  8
0
 10
15.875
 20
0
 30
0.0
 11
31.75
 21
15.875
 31
0.0
  0
LINE
  8
0
 10
31.75
 20
15.875
 30
0.0
 11
47.625
 21
31.75
 31
0.0
  0
LINE
  8
0
 10
47.625
 20
31.75
 30
0.0
 11
63.5
 21
47.625
 31
0.0
  0
LINE
  8
0
 10
63.5
 20
47.625
 30
0.0
 11
79.375
 21
63.5
 31
0.0
  0
LINE
  8
0
 10
79.375
 20
63.5
 30
0.0
 11
95.25
 21
47.625
 31
0.0
  0
LINE
  8
0
 10
95.25
 20
47.625
 30
0.0
 11
79.375
 21
31.75
 31
0.0
  0
LINE
  8
0
 10
79.375
 20
31.75
 30
0.0
 11
63.5
 21
15.875
 31
0.0
  0
LINE
  8
0
 10
63.5
 20
15.875
 30
0.0
 11
47.625
 21
0
 31
0.0
  0
LINE
  8
0
 10
47.625
 20
0
 30
0.0
 11
31.75
 21
-15.875
 31
0.0
  0
LINE
  8
0
 10
31.75
 20
-15.875
 30
0.0
 11
47.625
 21
-31.75
 31
0.0
  0
LINE
  8
0
 10
47.625
 20
-31.75
 30
0.0
 11
63.5
 21
-15.875
 31
0.0
  0
LINE
  8
0
 10
63.5
 20
-15.875
 30
0.0
 11
79.375
 21
0
 31
0.0
  0
LINE
  8
0
 10
79.375
 20
0
 30
0.0
 11
95.25
 21
15.875
 31
0.0
  0
LINE
  8
0
 10
95.25
 20
15.875
 30
0.0
 11
111.125
 21
31.75
 31
0.0
  0
LINE
  8
0
 10
111.125
 20
31.75
 30
0.0
 11
127
 21
15.875
 31
0.0
  0
LINE
  8
0
 10
127
 20
15.875
 30
0.0
 11
111.125
 21
0
 31
0.0
  0
LINE
  8
0
 10
111.125
 20
0
 30
0.0
 11
95.25
 21
-15.875
 31
0.0
  0
LINE
  8
0
 10
95.25
 20
-15.875
 30
0.0
 11
79.375
 21
-31.75
 31
0.0
  0
LINE
  8
0
 10
79.375
 20
-31.75
 30
0.0
 11
63.5
 21
-47.625
 31
0.0
  0
LINE
  8
0
 10
63.5
 20
-47.625
 30
0.0
 11
47.625
 21
-31.75
 31
0.0
  0
LINE
  8
0
 10
47.625
 20
-31.75
 30
0.0
 11
31.75
 21
-15.875
 31
0.0
  0
LINE
  8
0
 10
31.75
 20
-15.875
 30
0.0
 11
15.875
 21
0
 31
0.0
  0
LINE
  8
0
 10
15.875
 20
0
 30
0.0
 11
0
 21
15.875
 31
0.0
  0
LINE
  8
0
 10
0
 20
15.875
 30
0.0
 11
-15.875
 21
31.75
 31
0.0
  0
LINE
  8
0
 10
-15.875
 20
31.75
 30
0.0
 11
-31.75
 21
47.625
 31
0.0
  0
LINE
  8
0
 10
-31.75
 20
47.625
 30
0.0
 11
-47.625
 21
63.5
 31
0.0
  0
LINE
  8
0
 10
-47.625
 20
63.5
 30
0.0
 11
-63.5
 21
79.375
 31
0.0
  0
LINE
  8
0
 10
-63.5
 20
79.375
 30
0.0
 11
-79.375
 21
95.25
 31
0.0
  0
LINE
  8
0
 10
-79.375
 20
95.25
 30
0.0
 11
-95.25
 21
111.125
 31
0.0
  0
LINE
  8
0
 10
-95.25
 20
111.125
 30
0.0
 11
-111.125
 21
127
 31
0.0
  0
LINE
  8
0
 10
-111.125
 20
127
 30
0.0
 11
-127
 21
142.875
 31
0.0
  0
LINE
  8
0
 10
-127
 20
142.875
 30
0.0
 11
-142.875
 21
127
 31
0.0
  0
LINE
  8
0
 10
-142.875
 20
127
 30
0.0
 11
-158.75
 21
111.125
 31
0.0
  0
LINE
  8
0
 10
-158.75
 20
111.125
 30
0.0
 11
-174.625
 21
95.25
 31
0.0
  0
LINE
  8
0
 10
-174.625
 20
95.25
 30
0.0
 11
-190.5
 21
79.375
 31
0.0
  0
LINE
  8
0
 10
-190.5
 20
79.375
 30
0.0
 11
-174.625
 21
63.5
 31
0.0
  0
LINE
  8
0
 10
-174.625
 20
63.5
 30
0.0
 11
-158.75
 21
47.625
 31
0.0
  0
LINE
  8
0
 10
-158.75
 20
47.625
 30
0.0
 11
-142.875
 21
31.75
 31
0.0
  0
LINE
  8
0
 10
-142.875
 20
31.75
 30
0.0
 11
-127
 21
15.875
 31
0.0
  0
LINE
  8
0
 10
-127
 20
15.875
 30
0.0
 11
-111.125
 21
0
 31
0.0
  0
LINE
  8
0
 10
-111.125
 20
0
 30
0.0
 11
-95.25
 21
-15.875
 31
0.0
  0
LINE
  8
0
 10
-95.25
 20
-15.875
 30
0.0
 11
-79.375
 21
-31.75
 31
0.0
  0
LINE
  8
0
 10
-79.375
 20
-31.75
 30
0.0
 11
-63.5
 21
-47.625
 31
0.0
  0
LINE
  8
0
 10
-63.5
 20
-47.625
 30
0.0
 11
-47.625
 21
-63.5
 31
0.0
  0
LINE
  8
0
 10
-47.625
 20
-63.5
 30
0.0
 11
-31.75
 21
-79.375
 31
0.0
  0
LINE
  8
0
 10
-31.75
 20
-79.375
 30
0.0
 11
-15.875
 21
-95.25
 31
0.0
  0
LINE
  8
0
 10
-15.875
 20
-95.25
 30
0.0
 11
0
 21
-111.125
 31
0.0
  0
LINE
  8
0
 10
0
 20
-111.125
 30
0.0
 11
-15.875
 21
-127
 31
0.0
  0
LINE
  8
0
 10
-15.875
 20
-127
 30
0.0
 11
-31.75
 21
-111.125
 31
0.0
  0
LINE
  8
0
 10
-31.75
 20
-111.125
 30
0.0
 11
-47.625
 21
-95.25
 31
0.0
  0
LINE
  8
0
 10
-47.625
 20
-95.25
 30
0.0
 11
-63.5
 21
-79.375
 31
0.0
  0
LINE
  8
0
 10
-63.5
 20
-79.375
 30
0.0
 11
-79.375
 21
-63.5
 31
0.0
  0
LINE
  8
0
 10
-79.375
 20
-63.5
 30
0.0
 11
-95.25
 21
-79.375
 31
0.0
  0
LINE
  8
0
 10
-95.25
 20
-79.375
 30
0.0
 11
-79.375
 21
-95.25
 31
0.0
  0
LINE
  8
0
 10
-79.375
 20
-95.25
 30
0.0
 11
-63.5
 21
-111.125
 31
0.0
  0
LINE
  8
0
 10
-63.5
 20
-111.125
 30
0.0
 11
-47.625
 21
-127
 31
0.0
  0
LINE
  8
0
 10
-47.625
 20
-127
 30
0.0
 11
-31.75
 21
-142.875
 31
0.0
  0
LINE
  8
0
 10
-31.75
 20
-142.875
 30
0.0
 11
-47.625
 21
-158.75
 31
0.0
  0
LINE
  8
0
 10
-47.625
 20
-158.75
 30
0.0
 11
-63.5
 21
-142.875
 31
0.0
  0
LINE
  8
0
 10
-63.5
 20
-142.875
 30
0.0
 11
-79.375
 21
-127
 31
0.0
  0
LINE
  8
0
 10
-79.375
 20
-127
 30
0.0
 11
-95.25
 21
-111.125
 31
0.0
  0
LINE
  8
0
 10
-95.25
 20
-111.125
 30
0.0
 11
-111.125
 21
-95.25
 31
0.0
  0
LINE
  8
0
 10
-111.125
 20
-95.25
 30
0.0
 11
-127
 21
-111.125
 31
0.0
  0
LINE
  8
0
 10
-127
 20
-111.125
 30
0.0
 11
-111.125
 21
-127
 31
0.0
  0
LINE
  8
0
 10
-111.125
 20
-127
 30
0.0
 11
-95.25
 21
-142.875
 31
0.0
  0
LINE
  8
0
 10
-95.25
 20
-142.875
 30
0.0
 11
-79.375
 21
-158.75
 31
0.0
  0
LINE
  8
0
 10
-79.375
 20
-158.75
 30
0.0
 11
-63.5
 21
-174.625
 31
0.0
  0
LINE
  8
0
 10
-63.5
 20
-174.625
 30
0.0
 11
-47.625
 21
-158.75
 31
0.0
  0
LINE
  8
0
 10
-47.625
 20
-158.75
 30
0.0
 11
-31.75
 21
-142.875
 31
0.0
  0
LINE
  8
0
 10
-31.75
 20
-142.875
 30
0.0
 11
-15.875
 21
-127
 31
0.0
  0
LINE
  8
0
 10
-15.875
 20
-127
 30
0.0
 11
0
 21
-111.125
 31
0.0
  0
LINE
  8
0
 10
0
 20
-111.125
 30
0.0
 11
63.5
 21
-47.625
 31
0.0
  0
LINE
  8
0
 10
63.5
 20
-47.625
 30
0.0
 11
79.375
 21
-31.75
 31
0.0
  0
LINE
  8
0
 10
79.375
 20
-31.75
 30
0.0
 11
95.25
 21
-15.875
 31
0.0
  0
LINE
  8
0
 10
95.25
 20
-15.875
 30
0.0
 11
111.125
 21
0
 31
0.0
  0
LINE
  8
0
 10
111.125
 20
0
 30
0.0
 11
127
 21
15.875
 31
0.0
  0
LINE
  8
0
 10
127
 20
15.875
 30
0.0
 11
142.875
 21
0
 31
0.0
  0
LINE
  8
0
 10
142.875
 20
0
 30
0.0
 11
158.75
 21
-15.875
 31
0.0
  0
LINE
  8
0
 10
158.75
 20
-15.875
 30
0.0
 11
174.625
 21
-31.75
 31
0.0
  0
LINE
  8
0
 10
174.625
 20
-31.75
 30
0.0
 11
190.5
 21
-47.625
 31
0.0
  0
LINE
  8
0
 10
190.5
 20
-47.625
 30
0.0
 11
174.625
 21
-63.5
 31
0.0
  0
LINE
  8
0
 10
174.625
 20
-63.5
 30
0.0
 11
158.75
 21
-79.375
 31
0.0
  0
LINE
  8
0
 10
158.75
 20
-79.375
 30
0.0
 11
142.875
 21
-95.25
 31
0.0
  0
LINE
  8
0
 10
142.875
 20
-95.25
 30
0.0
 11
127
 21
-111.125
 31
0.0
  0
LINE
  8
0
 10
127
 20
-111.125
 30
0.0
 11
111.125
 21
-127
 31
0.0
  0
LINE
  8
0
 10
111.125
 20
-127
 30
0.0
 11
95.25
 21
-142.875
 31
0.0
  0
LINE
  8
0
 10
95.25
 20
-142.875
 30
0.0
 11
79.375
 21
-158.75
 31
0.0
  0
LINE
  8
0
 10
79.375
 20
-158.75
 30
0.0
 11
63.5
 21
-174.625
 31
0.0
  0
CIRCLE
  8
0
 10
1000
 20
7000
 30
0.0
 40
100
  0
CIRCLE
  8
0
 10
1500
 20
7000
 30
0.0
 40
100
  0
CIRCLE
  8
0
 10
2000
 20
7000
 30
0.0
 40
100
  0
CIRCLE
  8
0
 10
2500
 20
7000
 30
0.0
 40
100
  0
CIRCLE
  8
0
 10
100
 20
100
 30
0.0
 40
125
  0
CIRCLE
  8
0
 10
200
 20
200
 30
0.0
 40
200
  0
CIRCLE
  8
0
 10
300
 20
300
 30
0.0
 40
200
  0
CIRCLE
  8
0
 10
350
 20
350
 30
0.0
 40
200
  0
CIRCLE
  8
0
 10
360
 20
360
 30
0.0
 40
200
  0
CIRCLE
  8
0
 10
370
 20
370
 30
0.0
 40
200
  0
ENDSEC
  0
EOF
