  0
SECTION
  2
ENTITIES
  0
LINE
  8
0
 10
50.8
 20
101.6
 30
0.0
 11
-25.4
 21
3.814697E-06
 31
0.0
  0
LINE
  8
0
 10
-25.4
 20
3.814697E-06
 30
0.0
 11
-101.6
 21
-101.6
 31
0.0
  0
LINE
  8
0
 10
-101.6
 20
-101.6
 30
0.0
 11
-25.4
 21
-203.2
 31
0.0
  0
LINE
  8
0
 10
-25.4
 20
-203.2
 30
0.0
 11
50.8
 21
-304.8
 31
0.0
  0
LINE
  8
0
 10
50.8
 20
-304.8
 30
0.0
 11
127
 21
-203.2
 31
0.0
  0
LINE
  8
0
 10
127
 20
-203.2
 30
0.0
 11
203.2
 21
-101.6
 31
0.0
  0
LINE
  8
0
 10
203.2
 20
-101.6
 30
0.0
 11
279.4
 21
-203.2
 31
0.0
  0
LINE
  8
0
 10
279.4
 20
-203.2
 30
0.0
 11
203.2
 21
-304.8
 31
0.0
  0
LINE
  8
0
 10
203.2
 20
-304.8
 30
0.0
 11
127
 21
-203.2
 31
0.0
  0
LINE
  8
0
 10
127
 20
-203.2
 30
0.0
 11
50.8
 21
-101.6
 31
0.0
  0
LINE
  8
0
 10
50.8
 20
-101.6
 30
0.0
 11
-25.4
 21
-203.2
 31
0.0
  0
LINE
  8
0
 10
-25.4
 20
-203.2
 30
0.0
 11
-101.6
 21
-304.8
 31
0.0
  0
LINE
  8
0
 10
-101.6
 20
-304.8
 30
0.0
 11
-177.8
 21
-406.4
 31
0.0
  0
LINE
  8
0
 10
-177.8
 20
-406.4
 30
0.0
 11
-254
 21
-508
 31
0.0
  0
LINE
  8
0
 10
-254
 20
-508
 30
0.0
 11
-177.8
 21
-609.6
 31
0.0
  0
LINE
  8
0
 10
-177.8
 20
-609.6
 30
0.0
 11
-101.6
 21
-508
 31
0.0
  0
LINE
  8
0
 10
-101.6
 20
-508
 30
0.0
 11
-177.8
 21
-406.4
 31
0.0
  0
LINE
  8
0
 10
-177.8
 20
-406.4
 30
0.0
 11
-254
 21
-304.8
 31
0.0
  0
LINE
  8
0
 10
-254
 20
-304.8
 30
0.0
 11
-177.8
 21
-203.2
 31
0.0
  0
LINE
  8
0
 10
-177.8
 20
-203.2
 30
0.0
 11
-101.6
 21
-304.8
 31
0.0
  0
LINE
  8
0
 10
-101.6
 20
-304.8
 30
0.0
 11
-25.4
 21
-406.4
 31
0.0
  0
LINE
  8
0
 10
-25.4
 20
-406.4
 30
0.0
 11
-101.6
 21
-508
 31
0.0
  0
LINE
  8
0
 10
-101.6
 20
-508
 30
0.0
 11
-25.4
 21
-609.6
 31
0.0
  0
LINE
  8
0
 10
-25.4
 20
-609.6
 30
0.0
 11
50.8
 21
-711.2
 31
0.0
  0
LINE
  8
0
 10
50.8
 20
-711.2
 30
0.0
 11
127
 21
-609.6
 31
0.0
  0
LINE
  8
0
 10
127
 20
-609.6
 30
0.0
 11
203.2
 21
-508
 31
0.0
  0
LINE
  8
0
 10
203.2
 20
-508
 30
0.0
 11
279.4
 21
-609.6
 31
0.0
  0
LINE
  8
0
 10
279.4
 20
-609.6
 30
0.0
 11
203.2
 21
-711.2
 31
0.0
  0
LINE
  8
0
 10
203.2
 20
-711.2
 30
0.0
 11
127
 21
-609.6
 31
0.0
  0
LINE
  8
0
 10
127
 20
-609.6
 30
0.0
 11
50.8
 21
-508
 31
0.0
  0
LINE
  8
0
 10
50.8
 20
-508
 30
0.0
 11
-25.4
 21
-609.6
 31
0.0
  0
LINE
  8
0
 10
-25.4
 20
-609.6
 30
0.0
 11
-101.6
 21
-711.2
 31
0.0
  0
LINE
  8
0
 10
-101.6
 20
-711.2
 30
0.0
 11
-25.4
 21
-812.7999
 31
0.0
  0
LINE
  8
0
 10
-25.4
 20
-812.7999
 30
0.0
 11
50.8
 21
-914.4
 31
0.0
  0
LINE
  8
0
 10
50.8
 20
-914.4
 30
0.0
 11
127
 21
-812.7999
 31
0.0
  0
LINE
  8
0
 10
127
 20
-812.7999
 30
0.0
 11
203.2
 21
-711.2
 31
0.0
  0
LINE
  8
0
 10
203.2
 20
-711.2
 30
0.0
 11
279.4
 21
-609.6
 31
0.0
  0
LINE
  8
0
 10
279.4
 20
-609.6
 30
0.0
 11
355.6
 21
-508
 31
0.0
  0
LINE
  8
0
 10
355.6
 20
-508
 30
0.0
 11
279.4
 21
-406.4
 31
0.0
  0
LINE
  8
0
 10
279.4
 20
-406.4
 30
0.0
 11
203.2
 21
-304.8
 31
0.0
  0
LINE
  8
0
 10
203.2
 20
-304.8
 30
0.0
 11
127
 21
-406.4
 31
0.0
  0
LINE
  8
0
 10
127
 20
-406.4
 30
0.0
 11
203.2
 21
-508
 31
0.0
  0
LINE
  8
0
 10
203.2
 20
-508
 30
0.0
 11
279.4
 21
-406.4
 31
0.0
  0
LINE
  8
0
 10
279.4
 20
-406.4
 30
0.0
 11
355.6
 21
-304.8
 31
0.0
  0
LINE
  8
0
 10
355.6
 20
-304.8
 30
0.0
 11
431.8
 21
-406.4
 31
0.0
  0
LINE
  8
0
 10
431.8
 20
-406.4
 30
0.0
 11
355.6
 21
-508
 31
0.0
  0
LINE
  8
0
 10
355.6
 20
-508
 30
0.0
 11
431.8
 21
-609.6
 31
0.0
  0
LINE
  8
0
 10
431.8
 20
-609.6
 30
0.0
 11
508
 21
-508
 31
0.0
  0
LINE
  8
0
 10
508
 20
-508
 30
0.0
 11
431.8
 21
-406.4
 31
0.0
  0
LINE
  8
0
 10
431.8
 20
-406.4
 30
0.0
 11
508
 21
-508
 31
0.0
  0
LINE
  8
0
 10
508
 20
-508
 30
0.0
 11
584.2
 21
-609.6
 31
0.0
  0
LINE
  8
0
 10
584.2
 20
-609.6
 30
0.0
 11
660.4
 21
-711.2
 31
0.0
  0
LINE
  8
0
 10
660.4
 20
-711.2
 30
0.0
 11
584.2
 21
-812.7999
 31
0.0
  0
LINE
  8
0
 10
584.2
 20
-812.7999
 30
0.0
 11
660.4
 21
-914.4
 31
0.0
  0
LINE
  8
0
 10
660.4
 20
-914.4
 30
0.0
 11
736.6
 21
-1016
 31
0.0
  0
LINE
  8
0
 10
736.6
 20
-1016
 30
0.0
 11
660.4
 21
-914.4
 31
0.0
  0
LINE
  8
0
 10
660.4
 20
-914.4
 30
0.0
 11
736.6
 21
-812.7999
 31
0.0
  0
LINE
  8
0
 10
736.6
 20
-812.7999
 30
0.0
 11
660.4
 21
-914.4
 31
0.0
  0
LINE
  8
0
 10
660.4
 20
-914.4
 30
0.0
 11
584.2
 21
-1016
 31
0.0
  0
LINE
  8
0
 10
584.2
 20
-1016
 30
0.0
 11
508
 21
-914.4
 31
0.0
  0
LINE
  8
0
 10
508
 20
-914.4
 30
0.0
 11
584.2
 21
-812.7999
 31
0.0
  0
LINE
  8
0
 10
584.2
 20
-812.7999
 30
0.0
 11
508
 21
-711.2
 31
0.0
  0
LINE
  8
0
 10
508
 20
-711.2
 30
0.0
 11
431.8
 21
-609.6
 31
0.0
  0
LINE
  8
0
 10
431.8
 20
-609.6
 30
0.0
 11
355.6
 21
-711.2
 31
0.0
  0
LINE
  8
0
 10
355.6
 20
-711.2
 30
0.0
 11
279.4
 21
-812.7999
 31
0.0
  0
LINE
  8
0
 10
279.4
 20
-812.7999
 30
0.0
 11
203.2
 21
-914.4
 31
0.0
  0
LINE
  8
0
 10
203.2
 20
-914.4
 30
0.0
 11
127
 21
-1016
 31
0.0
  0
LINE
  8
0
 10
127
 20
-1016
 30
0.0
 11
203.2
 21
-1117.6
 31
0.0
  0
LINE
  8
0
 10
203.2
 20
-1117.6
 30
0.0
 11
279.4
 21
-1016
 31
0.0
  0
LINE
  8
0
 10
279.4
 20
-1016
 30
0.0
 11
203.2
 21
-914.4
 31
0.0
  0
LINE
  8
0
 10
203.2
 20
-914.4
 30
0.0
 11
127
 21
-812.7999
 31
0.0
  0
LINE
  8
0
 10
127
 20
-812.7999
 30
0.0
 11
203.2
 21
-711.2
 31
0.0
  0
LINE
  8
0
 10
203.2
 20
-711.2
 30
0.0
 11
279.4
 21
-812.7999
 31
0.0
  0
LINE
  8
0
 10
279.4
 20
-812.7999
 30
0.0
 11
355.6
 21
-914.4
 31
0.0
  0
LINE
  8
0
 10
355.6
 20
-914.4
 30
0.0
 11
279.4
 21
-1016
 31
0.0
  0
LINE
  8
0
 10
279.4
 20
-1016
 30
0.0
 11
355.6
 21
-1117.6
 31
0.0
  0
LINE
  8
0
 10
355.6
 20
-1117.6
 30
0.0
 11
431.8
 21
-1219.2
 31
0.0
  0
LINE
  8
0
 10
431.8
 20
-1219.2
 30
0.0
 11
508
 21
-1320.8
 31
0.0
  0
LINE
  8
0
 10
508
 20
-1320.8
 30
0.0
 11
431.8
 21
-1422.4
 31
0.0
  0
LINE
  8
0
 10
431.8
 20
-1422.4
 30
0.0
 11
508
 21
-1320.8
 31
0.0
  0
LINE
  8
0
 10
508
 20
-1320.8
 30
0.0
 11
584.2
 21
-1219.2
 31
0.0
  0
LINE
  8
0
 10
584.2
 20
-1219.2
 30
0.0
 11
660.4
 21
-1117.6
 31
0.0
  0
LINE
  8
0
 10
660.4
 20
-1117.6
 30
0.0
 11
584.2
 21
-1016
 31
0.0
  0
LINE
  8
0
 10
584.2
 20
-1016
 30
0.0
 11
508
 21
-1117.6
 31
0.0
  0
LINE
  8
0
 10
508
 20
-1117.6
 30
0.0
 11
431.8
 21
-1219.2
 31
0.0
  0
LINE
  8
0
 10
431.8
 20
-1219.2
 30
0.0
 11
355.6
 21
-1320.8
 31
0.0
  0
LINE
  8
0
 10
355.6
 20
-1320.8
 30
0.0
 11
279.4
 21
-1219.2
 31
0.0
  0
LINE
  8
0
 10
279.4
 20
-1219.2
 30
0.0
 11
203.2
 21
-1117.6
 31
0.0
  0
LINE
  8
0
 10
203.2
 20
-1117.6
 30
0.0
 11
127
 21
-1016
 31
0.0
  0
LINE
  8
0
 10
127
 20
-1016
 30
0.0
 11
50.8
 21
-914.4
 31
0.0
  0
CIRCLE
  8
0
 10
1000
 20
7000
 30
0.0
 40
100
  0
CIRCLE
  8
0
 10
2500
 20
7000
 30
0.0
 40
100
  0
CIRCLE
  8
0
 10
4000
 20
7000
 30
0.0
 40
100
  0
CIRCLE
  8
0
 10
100
 20
100
 30
0.0
 40
130
  0
CIRCLE
  8
0
 10
200
 20
200
 30
0.0
 40
200
  0
CIRCLE
  8
0
 10
300
 20
300
 30
0.0
 40
200
  0
CIRCLE
  8
0
 10
350
 20
350
 30
0.0
 40
200
  0
CIRCLE
  8
0
 10
360
 20
360
 30
0.0
 40
200
  0
CIRCLE
  8
0
 10
370
 20
370
 30
0.0
 40
200
  0
ENDSEC
  0
EOF
