  0
SECTION
  2
ENTITIES
  0
ARC
  8
0
 10
445.4849
 20
-114.8554
 30
0.0
 40
414.7747
 50
65.80602
 51
191.4798
  0
ARC
  8
0
 10
13.43775
 20
-195.2536
 30
0.0
 40
25.66051
 50
252.1908
 51
355.1901
  0
ARC
  8
0
 10
-113.3936
 20
-312.6
 30
0.0
 40
150.9645
 50
37.98682
 51
240.4016
  0
ARC
  8
0
 10
-195.2863
 20
-491.5737
 30
0.0
 40
48.26863
 50
316.7841
 51
81.26748
  0
ARC
  8
0
 10
-102.9582
 20
-653.693
 30
0.0
 40
141.1546
 50
113.8838
 51
312.8606
  0
ARC
  8
0
 10
12.9464
 20
-774.0772
 30
0.0
 40
26.11001
 50
3.512558
 51
139.6187
  0
ARC
  8
0
 10
141.3815
 20
-809.0663
 30
0.0
 40
108.7162
 50
160.3328
 51
30.20261
  0
ARC
  8
0
 10
267.0224
 20
-761.6248
 30
0.0
 40
32.50119
 50
34.45652
 51
167.1126
  0
ARC
  8
0
 10
28.38593
 20
-866.9851
 30
0.0
 40
292.8653
 50
24.9957
 51
67.89858
  0
ARC
  8
0
 10
143.0485
 20
-472.4483
 30
0.0
 40
123.2727
 50
89.48898
 51
267.9207
  0
ARC
  8
0
 10
143.0485
 20
-472.4483
 30
0.0
 40
123.2727
 50
89.48898
 51
267.9207
  0
ARC
  8
0
 10
140.5519
 20
-472.3919
 30
0.0
 40
123.2638
 50
269.0814
 51
88.32827
  0
ARC
  8
0
 10
-16.85227
 20
-348.4057
 30
0.0
 40
161.0023
 50
359.7243
 51
69.6991
  0
ARC
  8
0
 10
175.9902
 20
-186.1664
 30
0.0
 40
137.4428
 50
357.636
 51
184.6904
  0
ARC
  8
0
 10
363.0179
 20
-205.0965
 30
0.0
 40
51.44037
 50
165.0611
 51
286.1976
  0
ARC
  8
0
 10
455.9768
 20
-345.7739
 30
0.0
 40
120.463
 50
279.0075
 51
130.7352
  0
ARC
  8
0
 10
492.0403
 20
-501.3495
 30
0.0
 40
40.43993
 50
115.177
 51
225.5042
  0
ARC
  8
0
 10
400.3767
 20
-653.9531
 30
0.0
 40
139.0163
 50
219.9599
 51
62.90348
  0
ARC
  8
0
 10
816.5755
 20
-776.8229
 30
0.0
 40
523.832
 50
176.3238
 51
247.4239
  0
CIRCLE
  8
0
 10
1000
 20
7000
 30
0.0
 40
100
  0
CIRCLE
  8
0
 10
2500
 20
8000
 30
0.0
 40
100
  0
CIRCLE
  8
0
 10
4000
 20
7000
 30
0.0
 40
100
  0
CIRCLE
  8
0
 10
100
 20
100
 30
0.0
 40
128
  0
CIRCLE
  8
0
 10
200
 20
200
 30
0.0
 40
200
  0
CIRCLE
  8
0
 10
300
 20
300
 30
0.0
 40
200
  0
CIRCLE
  8
0
 10
350
 20
350
 30
0.0
 40
200
  0
CIRCLE
  8
0
 10
360
 20
360
 30
0.0
 40
200
  0
CIRCLE
  8
0
 10
370
 20
370
 30
0.0
 40
200
  0
ENDSEC
  0
EOF
