  0
SECTION
  2
ENTITIES
  0
LINE
  8
0
 10
381
 20
381
 30
0.0
 11
147
 21
149
 31
0.0
  0
LINE
  8
0
 10
147
 20
149
 30
0.0
 11
137.7636
 21
-139.0435
 31
0.0
  0
LINE
  8
0
 10
137.7636
 20
-139.0435
 30
0.0
 11
129.0909
 21
129.9783
 31
0.0
  0
LINE
  8
0
 10
129.0909
 20
129.9783
 30
0.0
 11
119.6473
 21
-120.0348
 31
0.0
  0
LINE
  8
0
 10
119.6473
 20
-120.0348
 30
0.0
 11
110.24
 21
110.687
 31
0.0
  0
LINE
  8
0
 10
110.24
 20
110.687
 30
0.0
 11
100.8327
 21
-101.6652
 31
0.0
  0
LINE
  8
0
 10
100.8327
 20
-101.6652
 30
0.0
 11
92.14912
 21
93.05221
 31
0.0
  0
LINE
  8
0
 10
92.14912
 20
93.05221
 30
0.0
 11
82.74184
 21
-83.29562
 31
0.0
  0
LINE
  8
0
 10
82.74184
 20
-83.29562
 30
0.0
 11
73.33456
 21
73.94785
 31
0.0
  0
LINE
  8
0
 10
73.33456
 20
73.94785
 30
0.0
 11
63.92727
 21
-64.92606
 31
0.0
  0
LINE
  8
0
 10
63.92727
 20
-64.92606
 30
0.0
 11
55.24364
 21
55.57826
 31
0.0
  0
LINE
  8
0
 10
55.24364
 20
55.57826
 30
0.0
 11
45.83636
 21
-47.29128
 31
0.0
  0
LINE
  8
0
 10
45.83636
 20
-47.29128
 30
0.0
 11
36.42909
 21
37.20869
 31
0.0
  0
LINE
  8
0
 10
36.42909
 20
37.20869
 30
0.0
 11
27.74545
 21
-28.92171
 31
0.0
  0
LINE
  8
0
 10
27.74545
 20
-28.92171
 30
0.0
 11
18.33821
 21
18.10435
 31
0.0
  0
LINE
  8
0
 10
18.33821
 20
18.10435
 30
0.0
 11
8.930926
 21
-9.817374
 31
0.0
  0
LINE
  8
0
 10
8.930926
 20
-9.817374
 30
0.0
 11
1.716614E-05
 21
1.716614E-05
 31
0.0
  0
LINE
  8
0
 10
1.716614E-05
 20
1.716614E-05
 30
0.0
 11
381
 21
-381
 31
0.0
  0
LINE
  8
0
 10
381
 20
-381
 30
0.0
 11
389.9309
 21
-371.1826
 31
0.0
  0
LINE
  8
0
 10
389.9309
 20
-371.1826
 30
0.0
 11
399.3382
 21
-399.1043
 31
0.0
  0
LINE
  8
0
 10
399.3382
 20
-399.1043
 30
0.0
 11
408.7455
 21
-352.0783
 31
0.0
  0
LINE
  8
0
 10
408.7455
 20
-352.0783
 30
0.0
 11
417.4291
 21
-418.2087
 31
0.0
  0
LINE
  8
0
 10
417.4291
 20
-418.2087
 30
0.0
 11
426.8364
 21
-333.7087
 31
0.0
  0
LINE
  8
0
 10
426.8364
 20
-333.7087
 30
0.0
 11
436.2437
 21
-436.5782
 31
0.0
  0
LINE
  8
0
 10
436.2437
 20
-436.5782
 30
0.0
 11
444.9273
 21
-316.0739
 31
0.0
  0
LINE
  8
0
 10
444.9273
 20
-316.0739
 30
0.0
 11
454.3346
 21
-454.9478
 31
0.0
  0
LINE
  8
0
 10
454.3346
 20
-454.9478
 30
0.0
 11
463.7419
 21
-297.7043
 31
0.0
  0
LINE
  8
0
 10
463.7419
 20
-297.7043
 30
0.0
 11
473.1492
 21
-474.0522
 31
0.0
  0
LINE
  8
0
 10
473.1492
 20
-474.0522
 30
0.0
 11
481.8328
 21
-279.3348
 31
0.0
  0
LINE
  8
0
 10
481.8328
 20
-279.3348
 30
0.0
 11
491.2401
 21
-491.687
 31
0.0
  0
LINE
  8
0
 10
491.2401
 20
-491.687
 30
0.0
 11
500.6473
 21
-260.9652
 31
0.0
  0
LINE
  8
0
 10
500.6473
 20
-260.9652
 30
0.0
 11
510.0909
 21
-510.9783
 31
0.0
  0
LINE
  8
0
 10
510.0909
 20
-510.9783
 30
0.0
 11
518.7636
 21
-241.9565
 31
0.0
  0
LINE
  8
0
 10
518.7636
 20
-241.9565
 30
0.0
 11
528
 21
-530
 31
0.0
  0
LINE
  8
0
 10
528
 20
-530
 30
0.0
 11
762
 21
-762
 31
0.0
  0
LINE
  8
0
 10
762
 20
-762
 30
0.0
 11
381
 21
-1143
 31
0.0
  0
CIRCLE
  8
0
 10
1000
 20
7000
 30
0.0
 40
100
  0
CIRCLE
  8
0
 10
1000
 20
8000
 30
0.0
 40
100
  0
CIRCLE
  8
0
 10
2500
 20
7000
 30
0.0
 40
100
  0
CIRCLE
  8
0
 10
2500
 20
8000
 30
0.0
 40
100
  0
CIRCLE
  8
0
 10
100
 20
100
 30
0.0
 40
125
  0
CIRCLE
  8
0
 10
200
 20
200
 30
0.0
 40
200
  0
CIRCLE
  8
0
 10
300
 20
300
 30
0.0
 40
200
  0
CIRCLE
  8
0
 10
350
 20
350
 30
0.0
 40
200
  0
CIRCLE
  8
0
 10
360
 20
360
 30
0.0
 40
200
  0
CIRCLE
  8
0
 10
370
 20
370
 30
0.0
 40
200
  0
ENDSEC
  0
EOF
