  0
SECTION
  2
ENTITIES
  0
ARC
  8
0
 10
-2.432196
 20
594.2747
 30
0.0
 40
167.7429
 50
89.16817
 51
177.36
  0
ARC
  8
0
 10
52.57734
 20
588.7193
 30
0.0
 40
222.9704
 50
176.5853
 51
283.599
  0
ARC
  8
0
 10
170.7081
 20
97.25812
 30
0.0
 40
282.4891
 50
20.67589
 51
103.4498
  0
ARC
  8
0
 10
360.7103
 20
149.945
 30
0.0
 40
87.94048
 50
331.512
 51
32.34898
  0
ARC
  8
0
 10
390.6404
 20
150.769
 30
0.0
 40
63.81554
 50
184.2857
 51
317.9167
  0
ARC
  8
0
 10
413.2869
 20
117.571
 30
0.0
 40
90.84647
 50
161.7636
 51
331.3398
  0
ARC
  8
0
 10
352.0603
 20
129.4999
 30
0.0
 40
151.4761
 50
338.5063
 51
21.49334
  0
ARC
  8
0
 10
216.8646
 20
107.0694
 30
0.0
 40
286.9241
 50
15.75986
 51
60.99215
  0
ARC
  8
0
 10
146.3473
 20
72.80609
 30
0.0
 40
353.9644
 50
53.67916
 51
93.78152
  0
ARC
  8
0
 10
170.1248
 20
712.8701
 30
0.0
 40
290.7149
 50
226.4981
 51
260.6718
  0
ARC
  8
0
 10
35.31805
 20
575.3877
 30
0.0
 40
98.24394
 50
135.7023
 51
228.331
  0
ARC
  8
0
 10
9.502743
 20
599.9998
 30
0.0
 40
62.58004
 50
14.81351
 51
135.3237
  0
ARC
  8
0
 10
45.34412
 20
588.1837
 30
0.0
 40
37.17249
 50
48.44345
 51
222.6469
  0
ARC
  8
0
 10
175.9774
 20
798.8663
 30
0.0
 40
283.8821
 50
236.1873
 51
269.3997
  0
ARC
  8
0
 10
197.402
 20
373.2247
 30
0.0
 40
143.8593
 50
20.66784
 51
99.7648
  0
ARC
  8
0
 10
-169.2829
 20
263.6659
 30
0.0
 40
526.3025
 50
17.73664
 51
71.23727
  0
ARC
  8
0
 10
-34.06306
 20
310.4551
 30
0.0
 40
452.8279
 50
38.76772
 51
85.68568
  0
ARC
  8
0
 10
131.5424
 20
664.5006
 30
0.0
 40
200.2792
 50
339.3897
 51
36.27606
  0
ARC
  8
0
 10
437.4832
 20
956.4774
 30
0.0
 40
225.7624
 50
155.5275
 51
230.2108
  0
ARC
  8
0
 10
362.5358
 20
990.5934
 30
0.0
 40
143.4155
 50
90.61225
 51
155.5288
  0
ARC
  8
0
 10
446.7687
 20
1027.677
 30
0.0
 40
136.603
 50
128.8911
 51
198.2047
  0
ARC
  8
0
 10
189.9928
 20
848.0501
 30
0.0
 40
186.7811
 50
5.206836
 51
47.15676
  0
ARC
  8
0
 10
463.2484
 20
833.7293
 30
0.0
 40
92.68027
 50
333.2407
 51
160.2807
  0
ARC
  8
0
 10
483.6908
 20
768.4359
 30
0.0
 40
66.619
 50
20.71492
 51
146.7108
  0
ARC
  8
0
 10
741.9536
 20
624.2882
 30
0.0
 40
362.2455
 50
150.0747
 51
203.9912
  0
ARC
  8
0
 10
-11.09968
 20
22.24528
 30
0.0
 40
620.4625
 50
10.30625
 51
47.13272
  0
ARC
  8
0
 10
1048.846
 20
204.2492
 30
0.0
 40
455.0663
 50
148.9451
 51
188.9756
  0
ARC
  8
0
 10
553.1918
 20
501.2439
 30
0.0
 40
122.7613
 50
329.5335
 51
17.91194
  0
ARC
  8
0
 10
584.3601
 20
508.3423
 30
0.0
 40
90.96458
 50
19.69579
 51
140.6654
  0
ARC
  8
0
 10
611.2312
 20
586.6892
 30
0.0
 40
99.40505
 50
334.5677
 51
192.0127
  0
ARC
  8
0
 10
939.6786
 20
421.7248
 30
0.0
 40
268.1739
 50
81.56794
 51
152.8736
  0
ARC
  8
0
 10
973.2992
 20
591.4186
 30
0.0
 40
95.75122
 50
47.48794
 51
86.58504
  0
ARC
  8
0
 10
935.0033
 20
605.9996
 30
0.0
 40
117.2387
 50
351.6623
 51
28.53284
  0
ARC
  8
0
 10
921.3587
 20
601.3384
 30
0.0
 40
130.2301
 50
254.247
 51
354.5633
  0
ARC
  8
0
 10
884.3296
 20
495.9771
 30
0.0
 40
20.04724
 50
108.3965
 51
274.7867
  0
ARC
  8
0
 10
891.3362
 20
541.6664
 30
0.0
 40
29.81424
 50
243.435
 51
100.3048
  0
ARC
  8
0
 10
866.796
 20
417.4598
 30
0.0
 40
154.7366
 50
82.86976
 51
131.1354
  0
ARC
  8
0
 10
1119.794
 20
180.2784
 30
0.0
 40
500.9945
 50
135.0865
 51
181.6331
  0
ARC
  8
0
 10
803.0018
 20
179.9109
 30
0.0
 40
184.524
 50
184.3236
 51
257.1619
  0
ARC
  8
0
 10
769.0714
 20
174.5216
 30
0.0
 40
174.6649
 50
193.667
 51
267.68
  0
ARC
  8
0
 10
333.8651
 20
97.83129
 30
0.0
 40
267.8392
 50
300.0529
 51
7.599391
  0
ARC
  8
0
 10
399.8307
 20
40.16112
 30
0.0
 40
187.0272
 50
228.5397
 51
291.3761
  0
ARC
  8
0
 10
365.4676
 20
9.737837
 30
0.0
 40
141.5868
 50
105.7636
 51
230.8099
  0
ARC
  8
0
 10
365.4676
 20
9.737837
 30
0.0
 40
141.5868
 50
105.7636
 51
230.8099
  0
ARC
  8
0
 10
193.3805
 20
-193.1431
 30
0.0
 40
124.5056
 50
330.7383
 51
48.42697
  0
ARC
  8
0
 10
76.63641
 20
-150.2047
 30
0.0
 40
248.1174
 50
267.0807
 51
335.2705
  0
ARC
  8
0
 10
83.88513
 20
-584.1566
 30
0.0
 40
187.2159
 50
96.09724
 51
206.948
  0
ARC
  8
0
 10
-17.47713
 20
-603.0807
 30
0.0
 40
92.94523
 50
225.1712
 51
316.5512
  0
ARC
  8
0
 10
39.97618
 20
-652.1758
 30
0.0
 40
17.89503
 50
304.0653
 51
141.3538
  0
ARC
  8
0
 10
9.481954
 20
-622.4631
 30
0.0
 40
24.82869
 50
120.1801
 51
311.7036
  0
ARC
  8
0
 10
43.88055
 20
-644.139
 30
0.0
 40
63.70832
 50
12.82249
 51
137.3799
  0
ARC
  8
0
 10
-1.73446
 20
-652.0466
 30
0.0
 40
109.9672
 50
270.9033
 51
11.5652
  0
CIRCLE
  8
0
 10
1000
 20
7000
 30
0.0
 40
100
  0
CIRCLE
  8
0
 10
2500
 20
8000
 30
0.0
 40
100
  0
CIRCLE
  8
0
 10
4000
 20
7000
 30
0.0
 40
100
  0
CIRCLE
  8
0
 10
100
 20
100
 30
0.0
 40
125
  0
CIRCLE
  8
0
 10
200
 20
200
 30
0.0
 40
200
  0
CIRCLE
  8
0
 10
300
 20
300
 30
0.0
 40
200
  0
CIRCLE
  8
0
 10
350
 20
350
 30
0.0
 40
200
  0
CIRCLE
  8
0
 10
360
 20
360
 30
0.0
 40
200
  0
CIRCLE
  8
0
 10
370
 20
370
 30
0.0
 40
200
  0
ENDSEC
  0
EOF
