  0
SECTION
  2
ENTITIES
  0
LINE
  8
0
 10
4914.059
 20
1732.074
 30
0.0
 11
5041.06
 21
1859.074
 31
0.0
  0
LINE
  8
0
 10
5041.06
 20
1859.074
 30
0.0
 11
4914.059
 21
1732.074
 31
0.0
  0
LINE
  8
0
 10
4914.059
 20
1732.074
 30
0.0
 11
4787.058
 21
1605.074
 31
0.0
  0
LINE
  8
0
 10
4787.058
 20
1605.074
 30
0.0
 11
4914.059
 21
1732.074
 31
0.0
  0
LINE
  8
0
 10
4914.059
 20
1732.074
 30
0.0
 11
5041.06
 21
1605.074
 31
0.0
  0
LINE
  8
0
 10
5041.06
 20
1605.074
 30
0.0
 11
5549.059
 21
1605.074
 31
0.0
  0
LINE
  8
0
 10
5549.059
 20
1605.074
 30
0.0
 11
5549.059
 21
1532.574
 31
0.0
  0
LINE
  8
0
 10
5549.059
 20
1532.574
 30
0.0
 11
5041.06
 21
1532.574
 31
0.0
  0
LINE
  8
0
 10
5041.06
 20
1532.574
 30
0.0
 11
5041.06
 21
1460.074
 31
0.0
  0
LINE
  8
0
 10
5041.06
 20
1460.074
 30
0.0
 11
5549.059
 21
1460.074
 31
0.0
  0
LINE
  8
0
 10
5549.059
 20
1460.074
 30
0.0
 11
5549.059
 21
1387.573
 31
0.0
  0
LINE
  8
0
 10
5549.059
 20
1387.573
 30
0.0
 11
5041.06
 21
1387.573
 31
0.0
  0
LINE
  8
0
 10
5041.06
 20
1387.573
 30
0.0
 11
5041.06
 21
1315.074
 31
0.0
  0
LINE
  8
0
 10
5041.06
 20
1315.074
 30
0.0
 11
5549.059
 21
1315.074
 31
0.0
  0
LINE
  8
0
 10
5549.059
 20
1315.074
 30
0.0
 11
5549.059
 21
1242.574
 31
0.0
  0
LINE
  8
0
 10
5549.059
 20
1242.574
 30
0.0
 11
5041.06
 21
1242.574
 31
0.0
  0
LINE
  8
0
 10
5041.06
 20
1242.574
 30
0.0
 11
5041.06
 21
1170.075
 31
0.0
  0
LINE
  8
0
 10
5041.06
 20
1170.075
 30
0.0
 11
5549.059
 21
1170.075
 31
0.0
  0
LINE
  8
0
 10
5549.059
 20
1170.075
 30
0.0
 11
5549.059
 21
1097.074
 31
0.0
  0
LINE
  8
0
 10
5549.059
 20
1097.074
 30
0.0
 11
5041.06
 21
1097.074
 31
0.0
  0
LINE
  8
0
 10
5041.06
 20
1097.074
 30
0.0
 11
4914.059
 21
970.074
 31
0.0
  0
LINE
  8
0
 10
4914.059
 20
970.074
 30
0.0
 11
4787.058
 21
1097.074
 31
0.0
  0
LINE
  8
0
 10
4787.058
 20
1097.074
 30
0.0
 11
4914.059
 21
970.074
 31
0.0
  0
LINE
  8
0
 10
4914.059
 20
970.074
 30
0.0
 11
5041.06
 21
843.074
 31
0.0
  0
LINE
  8
0
 10
5041.06
 20
843.074
 30
0.0
 11
4914.059
 21
970.074
 31
0.0
  0
LINE
  8
0
 10
4914.059
 20
970.074
 30
0.0
 11
4787.059
 21
843.0742
 31
0.0
  0
LINE
  8
0
 10
4787.059
 20
843.0742
 30
0.0
 11
4279.059
 21
843.0742
 31
0.0
  0
LINE
  8
0
 10
4279.059
 20
843.0742
 30
0.0
 11
4279.059
 21
770.574
 31
0.0
  0
LINE
  8
0
 10
4279.059
 20
770.574
 30
0.0
 11
4787.059
 21
770.574
 31
0.0
  0
LINE
  8
0
 10
4787.059
 20
770.574
 30
0.0
 11
4787.059
 21
698.0737
 31
0.0
  0
LINE
  8
0
 10
4787.059
 20
698.0737
 30
0.0
 11
4279.059
 21
698.0737
 31
0.0
  0
LINE
  8
0
 10
4279.059
 20
698.0737
 30
0.0
 11
4279.059
 21
625.5735
 31
0.0
  0
LINE
  8
0
 10
4279.059
 20
625.5735
 30
0.0
 11
4787.059
 21
625.5735
 31
0.0
  0
LINE
  8
0
 10
4787.059
 20
625.5735
 30
0.0
 11
4787.059
 21
553.074
 31
0.0
  0
LINE
  8
0
 10
4787.059
 20
553.074
 30
0.0
 11
4279.059
 21
553.074
 31
0.0
  0
LINE
  8
0
 10
4279.059
 20
553.074
 30
0.0
 11
4279.059
 21
480.5738
 31
0.0
  0
LINE
  8
0
 10
4279.059
 20
480.5738
 30
0.0
 11
4787.059
 21
480.5738
 31
0.0
  0
LINE
  8
0
 10
4787.059
 20
480.5738
 30
0.0
 11
4787.059
 21
408.0747
 31
0.0
  0
LINE
  8
0
 10
4787.059
 20
408.0747
 30
0.0
 11
4279.059
 21
408.0747
 31
0.0
  0
LINE
  8
0
 10
4279.059
 20
408.0747
 30
0.0
 11
4279.059
 21
335.0738
 31
0.0
  0
LINE
  8
0
 10
4279.059
 20
335.0738
 30
0.0
 11
4787.059
 21
335.0738
 31
0.0
  0
LINE
  8
0
 10
4787.059
 20
335.0738
 30
0.0
 11
4914.059
 21
208.074
 31
0.0
  0
CIRCLE
  8
0
 10
1000
 20
7000
 30
0.0
 40
100
  0
CIRCLE
  8
0
 10
2500
 20
7000
 30
0.0
 40
100
  0
CIRCLE
  8
0
 10
4000
 20
7000
 30
0.0
 40
100
  0
CIRCLE
  8
0
 10
5500
 20
7000
 30
0.0
 40
100
  0
CIRCLE
  8
0
 10
7000
 20
7000
 30
0.0
 40
100
  0
CIRCLE
  8
0
 10
100
 20
100
 30
0.0
 40
129
  0
CIRCLE
  8
0
 10
200
 20
200
 30
0.0
 40
200
  0
CIRCLE
  8
0
 10
300
 20
300
 30
0.0
 40
200
  0
CIRCLE
  8
0
 10
350
 20
350
 30
0.0
 40
200
  0
CIRCLE
  8
0
 10
360
 20
360
 30
0.0
 40
200
  0
CIRCLE
  8
0
 10
370
 20
370
 30
0.0
 40
200
  0
ENDSEC
  0
EOF
