  0
SECTION
  2
ENTITIES
  0
ARC
  8
0
 10
254
 20
508
 30
0.0
 40
254
 50
180
 51
0
  0
ARC
  8
0
 10
761.9999
 20
507.9994
 30
0.0
 40
254
 50
359.9998
 51
180
  0
ARC
  8
0
 10
1016
 20
254.0001
 30
0.0
 40
254
 50
89.99999
 51
270.0002
  0
ARC
  8
0
 10
1016
 20
-253.9999
 30
0.0
 40
254
 50
270
 51
89.99999
  0
ARC
  8
0
 10
761.9999
 20
-508.0006
 30
0.0
 40
254
 50
359.9998
 51
180
  0
ARC
  8
0
 10
254
 20
-507.9999
 30
0.0
 40
254
 50
180
 51
0
  0
ARC
  8
0
 10
-3.219672E-04
 20
-761.9993
 30
0.0
 40
254
 50
89.99999
 51
270.0002
  0
ARC
  8
0
 10
-4.42916E-04
 20
-1270
 30
0.0
 40
254
 50
270
 51
89.99999
  0
CIRCLE
  8
0
 10
1000
 20
7000
 30
0.0
 40
100
  0
CIRCLE
  8
0
 10
3000
 20
7000
 30
0.0
 40
100
  0
CIRCLE
  8
0
 10
100
 20
100
 30
0.0
 40
127
  0
CIRCLE
  8
0
 10
200
 20
200
 30
0.0
 40
200
  0
CIRCLE
  8
0
 10
300
 20
300
 30
0.0
 40
200
  0
CIRCLE
  8
0
 10
350
 20
350
 30
0.0
 40
200
  0
CIRCLE
  8
0
 10
360
 20
360
 30
0.0
 40
200
  0
CIRCLE
  8
0
 10
370
 20
370
 30
0.0
 40
200
  0
ENDSEC
  0
EOF
