  0
SECTION
  2
ENTITIES
  0
ARC
  8
0
 10
126.9998
 20
198.3439
 30
0.0
 40
138.6597
 50
23.66453
 51
156.3345
  0
LINE
  8
0
 10
-1.144409E-05
 20
253.9998
 30
0.0
 11
-1.144409E-05
 21
126.9999
 31
0.0
  0
LINE
  8
0
 10
-1.144409E-05
 20
126.9999
 30
0.0
 11
-1.144409E-05
 21
-1.144409E-05
 31
0.0
  0
ARC
  8
0
 10
126.9989
 20
-55.65785
 30
0.0
 40
138.6597
 50
23.66453
 51
156.3345
  0
LINE
  8
0
 10
253.9994
 20
-9.896412E-04
 30
0.0
 11
253.9994
 21
-127.0009
 31
0.0
  0
LINE
  8
0
 10
253.9994
 20
-127.0009
 30
0.0
 11
253.9994
 21
-254.0008
 31
0.0
  0
CIRCLE
  8
0
 10
1000
 20
7000
 30
0.0
 40
100
  0
CIRCLE
  8
0
 10
1500
 20
7000
 30
0.0
 40
100
  0
CIRCLE
  8
0
 10
2000
 20
7000
 30
0.0
 40
100
  0
CIRCLE
  8
0
 10
100
 20
100
 30
0.0
 40
128
  0
CIRCLE
  8
0
 10
200
 20
200
 30
0.0
 40
200
  0
CIRCLE
  8
0
 10
300
 20
300
 30
0.0
 40
200
  0
CIRCLE
  8
0
 10
350
 20
350
 30
0.0
 40
200
  0
CIRCLE
  8
0
 10
360
 20
360
 30
0.0
 40
200
  0
CIRCLE
  8
0
 10
370
 20
370
 30
0.0
 40
200
  0
ENDSEC
  0
EOF
