  0
SECTION
  2
ENTITIES
  0
LINE
  8
0
 10
241.8462
 20
249.3709
 30
0.0
 11
91.80436
 21
50.62222
 31
0.0
  0
LINE
  8
0
 10
91.80436
 20
50.62228
 30
0.0
 11
-150.086
 21
115.7166
 31
0.0
  0
LINE
  8
0
 10
-150.086
 20
115.7166
 30
0.0
 11
3.264006
 21
-62.46701
 31
0.0
  0
LINE
  8
0
 10
3.264006
 20
-62.46701
 30
0.0
 11
-150.144
 21
-258.6291
 31
0.0
  0
LINE
  8
0
 10
-150.144
 20
-258.6291
 30
0.0
 11
90.48131
 21
-194.4961
 31
0.0
  0
LINE
  8
0
 10
90.48131
 20
-194.4961
 30
0.0
 11
241.7881
 21
-392.2833
 31
0.0
  0
LINE
  8
0
 10
241.7881
 20
-392.2833
 30
0.0
 11
241.7881
 21
-143.2582
 31
0.0
  0
LINE
  8
0
 10
241.7881
 20
-143.2582
 30
0.0
 11
498.3629
 21
-62.46701
 31
0.0
  0
LINE
  8
0
 10
498.3629
 20
-62.46701
 30
0.0
 11
241.8607
 21
.3259605
 31
0.0
  0
LINE
  8
0
 10
241.8462
 20
.3456169
 30
0.0
 11
241.8462
 21
249.3709
 31
0.0
  0
LINE
  8
0
 10
241.8462
 20
249.3709
 30
0.0
 11
241.8462
 21
.3456169
 31
0.0
  0
LINE
  8
0
 10
241.8607
 20
.3259605
 30
0.0
 11
498.3629
 21
-62.46701
 31
0.0
  0
LINE
  8
0
 10
498.3629
 20
-62.46701
 30
0.0
 11
241.7881
 21
-143.2582
 31
0.0
  0
LINE
  8
0
 10
241.7881
 20
-143.2582
 30
0.0
 11
241.7881
 21
-392.2833
 31
0.0
  0
LINE
  8
0
 10
241.7881
 20
-392.2833
 30
0.0
 11
-.1021968
 21
-457.3779
 31
0.0
  0
LINE
  8
0
 10
-.1021968
 20
-457.3779
 30
0.0
 11
-150.144
 21
-258.6291
 31
0.0
  0
LINE
  8
0
 10
-150.144
 20
-258.6291
 30
0.0
 11
-150.144
 21
-507.6544
 31
0.0
  0
LINE
  8
0
 10
-150.144
 20
-507.6544
 30
0.0
 11
-406.6608
 21
-570.467
 31
0.0
  0
LINE
  8
0
 10
-406.6608
 20
-570.467
 30
0.0
 11
-150.086
 21
-651.2582
 31
0.0
  0
LINE
  8
0
 10
-150.086
 20
-651.2582
 30
0.0
 11
-150.086
 21
-900.2834
 31
0.0
  0
LINE
  8
0
 10
-150.086
 20
-900.2834
 30
0.0
 11
1.220851
 21
-702.496
 31
0.0
  0
LINE
  8
0
 10
1.220851
 20
-702.496
 30
0.0
 11
241.8462
 21
-766.6291
 31
0.0
  0
LINE
  8
0
 10
241.8462
 20
-766.6291
 30
0.0
 11
88.4381
 21
-570.467
 31
0.0
  0
LINE
  8
0
 10
88.4381
 20
-570.467
 30
0.0
 11
241.7881
 21
-392.2833
 31
0.0
  0
LINE
  8
0
 10
241.7881
 20
-392.2833
 30
0.0
 11
88.4381
 21
-570.467
 31
0.0
  0
LINE
  8
0
 10
88.4381
 20
-570.467
 30
0.0
 11
241.8462
 21
-766.6291
 31
0.0
  0
CIRCLE
  8
0
 10
1000
 20
7000
 30
0.0
 40
100
  0
CIRCLE
  8
0
 10
2000
 20
7000
 30
0.0
 40
100
  0
CIRCLE
  8
0
 10
100
 20
100
 30
0.0
 40
128
  0
CIRCLE
  8
0
 10
200
 20
200
 30
0.0
 40
200
  0
CIRCLE
  8
0
 10
300
 20
300
 30
0.0
 40
200
  0
CIRCLE
  8
0
 10
350
 20
350
 30
0.0
 40
200
  0
CIRCLE
  8
0
 10
360
 20
360
 30
0.0
 40
200
  0
CIRCLE
  8
0
 10
370
 20
370
 30
0.0
 40
200
  0
ENDSEC
  0
EOF
