  0
SECTION
  2
ENTITIES
  0
ARC
  8
0
 10
4866.525
 20
2090.875
 30
0.0
 40
269.4066
 50
45
 51
135
  0
ARC
  8
0
 10
4485.521
 20
2090.874
 30
0.0
 40
269.4066
 50
45.00028
 51
225.0001
  0
ARC
  8
0
 10
4485.521
 20
1709.876
 30
0.0
 40
269.4066
 50
135
 51
314.9997
  0
ARC
  8
0
 10
4866.525
 20
1709.875
 30
0.0
 40
269.4066
 50
225
 51
315
  0
ARC
  8
0
 10
5247.521
 20
1328.874
 30
0.0
 40
269.4066
 50
44.99992
 51
134.9997
  0
ARC
  8
0
 10
5628.525
 20
1328.873
 30
0.0
 40
269.4066
 50
315
 51
134.9995
  0
ARC
  8
0
 10
5628.525
 20
947.8753
 30
0.0
 40
269.4066
 50
225.0005
 51
45.00011
  0
ARC
  8
0
 10
5247.521
 20
947.8741
 30
0.0
 40
269.4066
 50
225.0002
 51
315.0001
  0
CIRCLE
  8
0
 10
1000
 20
7000
 30
0.0
 40
100
  0
CIRCLE
  8
0
 10
2500
 20
8000
 30
0.0
 40
100
  0
CIRCLE
  8
0
 10
4000
 20
7000
 30
0.0
 40
100
  0
CIRCLE
  8
0
 10
100
 20
100
 30
0.0
 40
125
  0
CIRCLE
  8
0
 10
200
 20
200
 30
0.0
 40
200
  0
CIRCLE
  8
0
 10
300
 20
300
 30
0.0
 40
200
  0
CIRCLE
  8
0
 10
350
 20
350
 30
0.0
 40
200
  0
CIRCLE
  8
0
 10
360
 20
360
 30
0.0
 40
200
  0
CIRCLE
  8
0
 10
370
 20
370
 30
0.0
 40
200
  0
ENDSEC
  0
EOF
