  0
SECTION
  2
ENTITIES
  0
LINE
  8
0
 10
4563.549
 20
1815.071
 30
0.0
 11
4523.677
 21
1815.071
 31
0.0
  0
LINE
  8
0
 10
4523.677
 20
1815.071
 30
0.0
 11
4483.806
 21
1815.071
 31
0.0
  0
LINE
  8
0
 10
4483.806
 20
1815.071
 30
0.0
 11
4563.549
 21
1810.087
 31
0.0
  0
LINE
  8
0
 10
4563.549
 20
1810.087
 30
0.0
 11
4483.806
 21
1810.087
 31
0.0
  0
LINE
  8
0
 10
4483.806
 20
1810.087
 30
0.0
 11
4563.549
 21
1805.103
 31
0.0
  0
LINE
  8
0
 10
4563.549
 20
1805.103
 30
0.0
 11
4523.677
 21
1805.103
 31
0.0
  0
LINE
  8
0
 10
4523.677
 20
1805.103
 30
0.0
 11
4483.806
 21
1805.103
 31
0.0
  0
LINE
  8
0
 10
4483.806
 20
1805.103
 30
0.0
 11
4523.677
 21
1805.103
 31
0.0
  0
LINE
  8
0
 10
4523.677
 20
1805.103
 30
0.0
 11
4523.677
 21
1751.775
 31
0.0
  0
LINE
  8
0
 10
4523.677
 20
1751.775
 30
0.0
 11
4563.549
 21
1751.775
 31
0.0
  0
LINE
  8
0
 10
4563.549
 20
1751.775
 30
0.0
 11
4523.677
 21
1751.775
 31
0.0
  0
LINE
  8
0
 10
4523.677
 20
1751.775
 30
0.0
 11
4483.806
 21
1751.775
 31
0.0
  0
LINE
  8
0
 10
4483.806
 20
1751.775
 30
0.0
 11
4563.549
 21
1746.791
 31
0.0
  0
LINE
  8
0
 10
4563.549
 20
1746.791
 30
0.0
 11
4483.806
 21
1746.791
 31
0.0
  0
LINE
  8
0
 10
4483.806
 20
1746.791
 30
0.0
 11
4563.549
 21
1741.806
 31
0.0
  0
LINE
  8
0
 10
4563.549
 20
1741.806
 30
0.0
 11
4523.677
 21
1741.806
 31
0.0
  0
LINE
  8
0
 10
4523.677
 20
1741.806
 30
0.0
 11
4483.806
 21
1741.806
 31
0.0
  0
LINE
  8
0
 10
4483.806
 20
1741.806
 30
0.0
 11
4523.677
 21
1741.806
 31
0.0
  0
LINE
  8
0
 10
4523.677
 20
1741.806
 30
0.0
 11
4523.677
 21
1688.478
 31
0.0
  0
LINE
  8
0
 10
4523.677
 20
1688.478
 30
0.0
 11
4563.549
 21
1688.478
 31
0.0
  0
LINE
  8
0
 10
4563.549
 20
1688.478
 30
0.0
 11
4523.677
 21
1688.478
 31
0.0
  0
LINE
  8
0
 10
4523.677
 20
1688.478
 30
0.0
 11
4483.806
 21
1688.478
 31
0.0
  0
LINE
  8
0
 10
4483.806
 20
1688.478
 30
0.0
 11
4563.549
 21
1683.495
 31
0.0
  0
LINE
  8
0
 10
4563.549
 20
1683.495
 30
0.0
 11
4483.806
 21
1683.495
 31
0.0
  0
LINE
  8
0
 10
4483.806
 20
1683.495
 30
0.0
 11
4563.549
 21
1678.51
 31
0.0
  0
LINE
  8
0
 10
4563.549
 20
1678.51
 30
0.0
 11
4523.677
 21
1678.51
 31
0.0
  0
LINE
  8
0
 10
4523.677
 20
1678.51
 30
0.0
 11
4483.806
 21
1678.51
 31
0.0
  0
LINE
  8
0
 10
4483.806
 20
1678.51
 30
0.0
 11
4523.677
 21
1678.51
 31
0.0
  0
LINE
  8
0
 10
4523.677
 20
1678.51
 30
0.0
 11
4523.677
 21
1625.182
 31
0.0
  0
LINE
  8
0
 10
4523.677
 20
1625.182
 30
0.0
 11
4563.549
 21
1625.182
 31
0.0
  0
LINE
  8
0
 10
4563.549
 20
1625.182
 30
0.0
 11
4523.677
 21
1625.182
 31
0.0
  0
LINE
  8
0
 10
4523.677
 20
1625.182
 30
0.0
 11
4483.806
 21
1625.182
 31
0.0
  0
LINE
  8
0
 10
4483.806
 20
1625.182
 30
0.0
 11
4563.549
 21
1620.197
 31
0.0
  0
LINE
  8
0
 10
4563.549
 20
1620.197
 30
0.0
 11
4483.806
 21
1620.197
 31
0.0
  0
LINE
  8
0
 10
4483.806
 20
1620.197
 30
0.0
 11
4563.549
 21
1615.214
 31
0.0
  0
LINE
  8
0
 10
4563.549
 20
1615.214
 30
0.0
 11
4523.677
 21
1615.214
 31
0.0
  0
LINE
  8
0
 10
4523.677
 20
1615.214
 30
0.0
 11
4483.806
 21
1615.214
 31
0.0
  0
LINE
  8
0
 10
4483.806
 20
1615.214
 30
0.0
 11
4523.677
 21
1615.214
 31
0.0
  0
LINE
  8
0
 10
4523.677
 20
1615.214
 30
0.0
 11
4523.677
 21
1561.887
 31
0.0
  0
LINE
  8
0
 10
4523.677
 20
1561.887
 30
0.0
 11
4563.549
 21
1561.887
 31
0.0
  0
LINE
  8
0
 10
4563.549
 20
1561.887
 30
0.0
 11
4523.677
 21
1561.887
 31
0.0
  0
LINE
  8
0
 10
4523.677
 20
1561.887
 30
0.0
 11
4483.806
 21
1561.887
 31
0.0
  0
LINE
  8
0
 10
4483.806
 20
1561.887
 30
0.0
 11
4563.549
 21
1556.902
 31
0.0
  0
LINE
  8
0
 10
4563.549
 20
1556.902
 30
0.0
 11
4483.806
 21
1556.902
 31
0.0
  0
LINE
  8
0
 10
4483.806
 20
1556.902
 30
0.0
 11
4563.549
 21
1551.917
 31
0.0
  0
LINE
  8
0
 10
4563.549
 20
1551.917
 30
0.0
 11
4523.677
 21
1551.917
 31
0.0
  0
LINE
  8
0
 10
4523.677
 20
1551.917
 30
0.0
 11
4483.806
 21
1551.917
 31
0.0
  0
LINE
  8
0
 10
4483.806
 20
1551.917
 30
0.0
 11
4523.677
 21
1551.917
 31
0.0
  0
LINE
  8
0
 10
4523.677
 20
1551.917
 30
0.0
 11
4523.677
 21
1498.589
 31
0.0
  0
LINE
  8
0
 10
4523.677
 20
1498.589
 30
0.0
 11
4563.549
 21
1498.589
 31
0.0
  0
LINE
  8
0
 10
4563.549
 20
1498.589
 30
0.0
 11
4523.677
 21
1498.589
 31
0.0
  0
LINE
  8
0
 10
4523.677
 20
1498.589
 30
0.0
 11
4483.806
 21
1498.589
 31
0.0
  0
LINE
  8
0
 10
4483.806
 20
1498.589
 30
0.0
 11
4563.549
 21
1493.603
 31
0.0
  0
LINE
  8
0
 10
4563.549
 20
1493.603
 30
0.0
 11
4483.806
 21
1493.603
 31
0.0
  0
LINE
  8
0
 10
4483.806
 20
1493.603
 30
0.0
 11
4563.549
 21
1488.621
 31
0.0
  0
LINE
  8
0
 10
4563.549
 20
1488.621
 30
0.0
 11
4523.677
 21
1488.621
 31
0.0
  0
LINE
  8
0
 10
4523.677
 20
1488.621
 30
0.0
 11
4483.806
 21
1488.621
 31
0.0
  0
LINE
  8
0
 10
4483.806
 20
1488.621
 30
0.0
 11
4523.677
 21
1488.621
 31
0.0
  0
LINE
  8
0
 10
4523.677
 20
1488.621
 30
0.0
 11
4523.677
 21
1435.294
 31
0.0
  0
LINE
  8
0
 10
4523.677
 20
1435.294
 30
0.0
 11
4563.549
 21
1435.294
 31
0.0
  0
LINE
  8
0
 10
4563.549
 20
1435.294
 30
0.0
 11
4523.677
 21
1435.294
 31
0.0
  0
LINE
  8
0
 10
4523.677
 20
1435.294
 30
0.0
 11
4483.806
 21
1435.294
 31
0.0
  0
LINE
  8
0
 10
4483.806
 20
1435.294
 30
0.0
 11
4563.549
 21
1430.309
 31
0.0
  0
LINE
  8
0
 10
4563.549
 20
1430.309
 30
0.0
 11
4483.806
 21
1430.309
 31
0.0
  0
LINE
  8
0
 10
4483.806
 20
1430.309
 30
0.0
 11
4563.549
 21
1425.325
 31
0.0
  0
LINE
  8
0
 10
4563.549
 20
1425.325
 30
0.0
 11
4523.677
 21
1425.325
 31
0.0
  0
LINE
  8
0
 10
4523.677
 20
1425.325
 30
0.0
 11
4483.806
 21
1425.325
 31
0.0
  0
LINE
  8
0
 10
4483.806
 20
1425.325
 30
0.0
 11
4523.677
 21
1425.325
 31
0.0
  0
LINE
  8
0
 10
4523.677
 20
1425.325
 30
0.0
 11
4523.677
 21
1371.997
 31
0.0
  0
LINE
  8
0
 10
4523.677
 20
1371.997
 30
0.0
 11
4563.549
 21
1371.997
 31
0.0
  0
LINE
  8
0
 10
4563.549
 20
1371.997
 30
0.0
 11
4523.677
 21
1371.997
 31
0.0
  0
LINE
  8
0
 10
4523.677
 20
1371.997
 30
0.0
 11
4483.806
 21
1371.997
 31
0.0
  0
LINE
  8
0
 10
4483.806
 20
1371.997
 30
0.0
 11
4563.549
 21
1367.013
 31
0.0
  0
LINE
  8
0
 10
4563.549
 20
1367.013
 30
0.0
 11
4483.806
 21
1367.013
 31
0.0
  0
LINE
  8
0
 10
4483.806
 20
1367.013
 30
0.0
 11
4563.549
 21
1362.029
 31
0.0
  0
LINE
  8
0
 10
4563.549
 20
1362.029
 30
0.0
 11
4523.677
 21
1362.029
 31
0.0
  0
LINE
  8
0
 10
4523.677
 20
1362.029
 30
0.0
 11
4483.806
 21
1362.029
 31
0.0
  0
LINE
  8
0
 10
4483.806
 20
1362.029
 30
0.0
 11
4523.677
 21
1362.029
 31
0.0
  0
LINE
  8
0
 10
4523.677
 20
1362.029
 30
0.0
 11
4523.677
 21
1308.701
 31
0.0
  0
LINE
  8
0
 10
4523.677
 20
1308.701
 30
0.0
 11
4563.549
 21
1308.701
 31
0.0
  0
LINE
  8
0
 10
4563.549
 20
1308.701
 30
0.0
 11
4523.677
 21
1308.701
 31
0.0
  0
LINE
  8
0
 10
4523.677
 20
1308.701
 30
0.0
 11
4483.806
 21
1308.701
 31
0.0
  0
LINE
  8
0
 10
4483.806
 20
1308.701
 30
0.0
 11
4563.549
 21
1303.716
 31
0.0
  0
LINE
  8
0
 10
4563.549
 20
1303.716
 30
0.0
 11
4483.806
 21
1303.716
 31
0.0
  0
LINE
  8
0
 10
4483.806
 20
1303.716
 30
0.0
 11
4563.549
 21
1298.733
 31
0.0
  0
LINE
  8
0
 10
4563.549
 20
1298.733
 30
0.0
 11
4523.677
 21
1298.733
 31
0.0
  0
LINE
  8
0
 10
4523.677
 20
1298.733
 30
0.0
 11
4483.806
 21
1298.733
 31
0.0
  0
LINE
  8
0
 10
4483.806
 20
1298.733
 30
0.0
 11
4523.677
 21
1298.733
 31
0.0
  0
LINE
  8
0
 10
4523.677
 20
1298.733
 30
0.0
 11
4523.677
 21
1245.405
 31
0.0
  0
LINE
  8
0
 10
4523.677
 20
1245.405
 30
0.0
 11
4563.549
 21
1245.405
 31
0.0
  0
LINE
  8
0
 10
4563.549
 20
1245.405
 30
0.0
 11
4523.677
 21
1245.405
 31
0.0
  0
LINE
  8
0
 10
4523.677
 20
1245.405
 30
0.0
 11
4483.806
 21
1245.405
 31
0.0
  0
LINE
  8
0
 10
4483.806
 20
1245.405
 30
0.0
 11
4563.549
 21
1240.42
 31
0.0
  0
LINE
  8
0
 10
4563.549
 20
1240.42
 30
0.0
 11
4483.806
 21
1240.42
 31
0.0
  0
LINE
  8
0
 10
4483.806
 20
1240.42
 30
0.0
 11
4563.549
 21
1235.436
 31
0.0
  0
LINE
  8
0
 10
4563.549
 20
1235.436
 30
0.0
 11
4523.677
 21
1235.436
 31
0.0
  0
LINE
  8
0
 10
4523.677
 20
1235.436
 30
0.0
 11
4483.806
 21
1235.436
 31
0.0
  0
LINE
  8
0
 10
4483.806
 20
1235.436
 30
0.0
 11
4523.677
 21
1235.436
 31
0.0
  0
LINE
  8
0
 10
4523.677
 20
1235.436
 30
0.0
 11
4523.677
 21
1182.108
 31
0.0
  0
LINE
  8
0
 10
4523.677
 20
1182.108
 30
0.0
 11
4563.549
 21
1182.108
 31
0.0
  0
LINE
  8
0
 10
4563.549
 20
1182.108
 30
0.0
 11
4523.677
 21
1182.108
 31
0.0
  0
LINE
  8
0
 10
4523.677
 20
1182.108
 30
0.0
 11
4483.806
 21
1182.108
 31
0.0
  0
LINE
  8
0
 10
4483.806
 20
1182.108
 30
0.0
 11
4563.549
 21
1177.124
 31
0.0
  0
LINE
  8
0
 10
4563.549
 20
1177.124
 30
0.0
 11
4483.806
 21
1177.124
 31
0.0
  0
LINE
  8
0
 10
4483.806
 20
1177.124
 30
0.0
 11
4563.549
 21
1172.14
 31
0.0
  0
LINE
  8
0
 10
4563.549
 20
1172.14
 30
0.0
 11
4523.677
 21
1172.14
 31
0.0
  0
LINE
  8
0
 10
4523.677
 20
1172.14
 30
0.0
 11
4483.806
 21
1172.14
 31
0.0
  0
LINE
  8
0
 10
4483.806
 20
1172.14
 30
0.0
 11
4523.677
 21
1172.14
 31
0.0
  0
LINE
  8
0
 10
4523.677
 20
1172.14
 30
0.0
 11
4523.677
 21
1118.812
 31
0.0
  0
LINE
  8
0
 10
4523.677
 20
1118.812
 30
0.0
 11
4563.549
 21
1118.812
 31
0.0
  0
LINE
  8
0
 10
4563.549
 20
1118.812
 30
0.0
 11
4523.677
 21
1118.812
 31
0.0
  0
LINE
  8
0
 10
4523.677
 20
1118.812
 30
0.0
 11
4483.806
 21
1118.812
 31
0.0
  0
LINE
  8
0
 10
4483.806
 20
1118.812
 30
0.0
 11
4563.549
 21
1113.827
 31
0.0
  0
LINE
  8
0
 10
4563.549
 20
1113.827
 30
0.0
 11
4483.806
 21
1113.827
 31
0.0
  0
LINE
  8
0
 10
4483.806
 20
1113.827
 30
0.0
 11
4563.549
 21
1108.842
 31
0.0
  0
LINE
  8
0
 10
4563.549
 20
1108.842
 30
0.0
 11
4523.677
 21
1108.842
 31
0.0
  0
LINE
  8
0
 10
4523.677
 20
1108.842
 30
0.0
 11
4483.806
 21
1108.842
 31
0.0
  0
LINE
  8
0
 10
4483.806
 20
1108.842
 30
0.0
 11
4523.677
 21
1108.842
 31
0.0
  0
LINE
  8
0
 10
4523.677
 20
1108.842
 30
0.0
 11
4523.677
 21
1050.531
 31
0.0
  0
LINE
  8
0
 10
4523.677
 20
1050.531
 30
0.0
 11
4563.549
 21
1050.531
 31
0.0
  0
LINE
  8
0
 10
4563.549
 20
1050.531
 30
0.0
 11
4569.331
 21
1050.531
 31
0.0
  0
LINE
  8
0
 10
4569.331
 20
1050.531
 30
0.0
 11
4579.299
 21
1050.531
 31
0.0
  0
LINE
  8
0
 10
4579.299
 20
1050.531
 30
0.0
 11
4619.967
 21
1050.531
 31
0.0
  0
LINE
  8
0
 10
4619.967
 20
1050.531
 30
0.0
 11
4629.935
 21
1050.531
 31
0.0
  0
LINE
  8
0
 10
4629.935
 20
1050.531
 30
0.0
 11
4670.605
 21
1050.531
 31
0.0
  0
LINE
  8
0
 10
4670.605
 20
1050.531
 30
0.0
 11
4680.573
 21
1050.531
 31
0.0
  0
LINE
  8
0
 10
4680.573
 20
1050.531
 30
0.0
 11
4721.242
 21
1050.531
 31
0.0
  0
LINE
  8
0
 10
4721.242
 20
1050.531
 30
0.0
 11
4731.209
 21
1050.531
 31
0.0
  0
LINE
  8
0
 10
4731.209
 20
1050.531
 30
0.0
 11
4771.878
 21
1050.531
 31
0.0
  0
LINE
  8
0
 10
4771.878
 20
1050.531
 30
0.0
 11
4781.847
 21
1050.531
 31
0.0
  0
LINE
  8
0
 10
4781.847
 20
1050.531
 30
0.0
 11
4822.516
 21
1050.531
 31
0.0
  0
LINE
  8
0
 10
4822.516
 20
1050.531
 30
0.0
 11
4832.484
 21
1050.531
 31
0.0
  0
LINE
  8
0
 10
4832.484
 20
1050.531
 30
0.0
 11
4873.155
 21
1050.531
 31
0.0
  0
LINE
  8
0
 10
4873.155
 20
1050.531
 30
0.0
 11
4883.12
 21
1050.531
 31
0.0
  0
LINE
  8
0
 10
4883.12
 20
1050.531
 30
0.0
 11
4923.79
 21
1050.531
 31
0.0
  0
LINE
  8
0
 10
4923.79
 20
1050.531
 30
0.0
 11
4933.758
 21
1050.531
 31
0.0
  0
LINE
  8
0
 10
4933.758
 20
1050.531
 30
0.0
 11
4974.427
 21
1050.531
 31
0.0
  0
LINE
  8
0
 10
4974.427
 20
1050.531
 30
0.0
 11
4984.395
 21
1050.531
 31
0.0
  0
LINE
  8
0
 10
4984.395
 20
1050.531
 30
0.0
 11
5030.048
 21
1050.531
 31
0.0
  0
LINE
  8
0
 10
5030.048
 20
1050.531
 30
0.0
 11
5030.048
 21
1108.842
 31
0.0
  0
LINE
  8
0
 10
5030.048
 20
1108.842
 30
0.0
 11
5030.048
 21
1118.812
 31
0.0
  0
LINE
  8
0
 10
5030.048
 20
1118.812
 30
0.0
 11
5030.048
 21
1172.14
 31
0.0
  0
LINE
  8
0
 10
5030.048
 20
1172.14
 30
0.0
 11
5030.048
 21
1182.108
 31
0.0
  0
LINE
  8
0
 10
5030.048
 20
1182.108
 30
0.0
 11
5030.048
 21
1235.436
 31
0.0
  0
LINE
  8
0
 10
5030.048
 20
1235.436
 30
0.0
 11
5030.048
 21
1245.405
 31
0.0
  0
LINE
  8
0
 10
5030.048
 20
1245.405
 30
0.0
 11
5030.048
 21
1298.733
 31
0.0
  0
LINE
  8
0
 10
5030.048
 20
1298.733
 30
0.0
 11
5030.048
 21
1308.701
 31
0.0
  0
LINE
  8
0
 10
5030.048
 20
1308.701
 30
0.0
 11
5030.048
 21
1362.029
 31
0.0
  0
LINE
  8
0
 10
5030.048
 20
1362.029
 30
0.0
 11
5030.048
 21
1371.997
 31
0.0
  0
LINE
  8
0
 10
5030.048
 20
1371.997
 30
0.0
 11
5030.048
 21
1425.325
 31
0.0
  0
LINE
  8
0
 10
5030.048
 20
1425.325
 30
0.0
 11
5030.048
 21
1435.294
 31
0.0
  0
LINE
  8
0
 10
5030.048
 20
1435.294
 30
0.0
 11
5030.048
 21
1488.621
 31
0.0
  0
LINE
  8
0
 10
5030.048
 20
1488.621
 30
0.0
 11
5030.048
 21
1498.589
 31
0.0
  0
LINE
  8
0
 10
5030.048
 20
1498.589
 30
0.0
 11
5030.048
 21
1551.917
 31
0.0
  0
LINE
  8
0
 10
5030.048
 20
1551.917
 30
0.0
 11
5030.048
 21
1561.887
 31
0.0
  0
LINE
  8
0
 10
5030.048
 20
1561.887
 30
0.0
 11
5030.048
 21
1615.214
 31
0.0
  0
LINE
  8
0
 10
5030.048
 20
1615.214
 30
0.0
 11
5030.048
 21
1625.182
 31
0.0
  0
LINE
  8
0
 10
5030.048
 20
1625.182
 30
0.0
 11
5030.048
 21
1678.51
 31
0.0
  0
LINE
  8
0
 10
5030.048
 20
1678.51
 30
0.0
 11
5030.048
 21
1688.478
 31
0.0
  0
LINE
  8
0
 10
5030.048
 20
1688.478
 30
0.0
 11
5030.048
 21
1741.806
 31
0.0
  0
LINE
  8
0
 10
5030.048
 20
1741.806
 30
0.0
 11
5030.048
 21
1751.775
 31
0.0
  0
LINE
  8
0
 10
5030.048
 20
1751.775
 30
0.0
 11
5030.048
 21
1805.103
 31
0.0
  0
LINE
  8
0
 10
5030.048
 20
1805.103
 30
0.0
 11
5030.048
 21
1810.087
 31
0.0
  0
LINE
  8
0
 10
5030.048
 20
1810.087
 30
0.0
 11
5030.048
 21
1815.071
 31
0.0
  0
LINE
  8
0
 10
5030.048
 20
1815.071
 30
0.0
 11
5069.919
 21
1815.071
 31
0.0
  0
LINE
  8
0
 10
5069.919
 20
1815.071
 30
0.0
 11
5030.048
 21
1815.071
 31
0.0
  0
LINE
  8
0
 10
5030.048
 20
1815.071
 30
0.0
 11
4990.176
 21
1815.071
 31
0.0
  0
LINE
  8
0
 10
4990.176
 20
1815.071
 30
0.0
 11
5069.919
 21
1810.087
 31
0.0
  0
LINE
  8
0
 10
5069.919
 20
1810.087
 30
0.0
 11
4990.176
 21
1810.087
 31
0.0
  0
LINE
  8
0
 10
4990.176
 20
1810.087
 30
0.0
 11
5069.919
 21
1805.103
 31
0.0
  0
LINE
  8
0
 10
5069.919
 20
1805.103
 30
0.0
 11
5030.048
 21
1805.103
 31
0.0
  0
LINE
  8
0
 10
5030.048
 20
1805.103
 30
0.0
 11
4990.176
 21
1805.103
 31
0.0
  0
LINE
  8
0
 10
4990.176
 20
1805.103
 30
0.0
 11
5030.048
 21
1805.103
 31
0.0
  0
LINE
  8
0
 10
5030.048
 20
1805.103
 30
0.0
 11
5030.048
 21
1751.775
 31
0.0
  0
LINE
  8
0
 10
5030.048
 20
1751.775
 30
0.0
 11
5069.919
 21
1751.775
 31
0.0
  0
LINE
  8
0
 10
5069.919
 20
1751.775
 30
0.0
 11
5030.048
 21
1751.775
 31
0.0
  0
LINE
  8
0
 10
5030.048
 20
1751.775
 30
0.0
 11
4990.176
 21
1751.775
 31
0.0
  0
LINE
  8
0
 10
4990.176
 20
1751.775
 30
0.0
 11
5069.919
 21
1746.791
 31
0.0
  0
LINE
  8
0
 10
5069.919
 20
1746.791
 30
0.0
 11
4990.176
 21
1746.791
 31
0.0
  0
LINE
  8
0
 10
4990.176
 20
1746.791
 30
0.0
 11
5069.919
 21
1741.806
 31
0.0
  0
LINE
  8
0
 10
5069.919
 20
1741.806
 30
0.0
 11
5030.048
 21
1741.806
 31
0.0
  0
LINE
  8
0
 10
5030.048
 20
1741.806
 30
0.0
 11
4990.176
 21
1741.806
 31
0.0
  0
LINE
  8
0
 10
4990.176
 20
1741.806
 30
0.0
 11
5030.048
 21
1741.806
 31
0.0
  0
LINE
  8
0
 10
5030.048
 20
1741.806
 30
0.0
 11
5030.048
 21
1688.478
 31
0.0
  0
LINE
  8
0
 10
5030.048
 20
1688.478
 30
0.0
 11
5069.919
 21
1688.478
 31
0.0
  0
LINE
  8
0
 10
5069.919
 20
1688.478
 30
0.0
 11
5030.048
 21
1688.478
 31
0.0
  0
LINE
  8
0
 10
5030.048
 20
1688.478
 30
0.0
 11
4990.176
 21
1688.478
 31
0.0
  0
LINE
  8
0
 10
4990.176
 20
1688.478
 30
0.0
 11
5069.919
 21
1683.495
 31
0.0
  0
LINE
  8
0
 10
5069.919
 20
1683.495
 30
0.0
 11
4990.176
 21
1683.495
 31
0.0
  0
LINE
  8
0
 10
4990.176
 20
1683.495
 30
0.0
 11
5069.919
 21
1678.51
 31
0.0
  0
LINE
  8
0
 10
5069.919
 20
1678.51
 30
0.0
 11
5030.048
 21
1678.51
 31
0.0
  0
LINE
  8
0
 10
5030.048
 20
1678.51
 30
0.0
 11
4990.176
 21
1678.51
 31
0.0
  0
LINE
  8
0
 10
4990.176
 20
1678.51
 30
0.0
 11
5030.048
 21
1678.51
 31
0.0
  0
LINE
  8
0
 10
5030.048
 20
1678.51
 30
0.0
 11
5030.048
 21
1625.182
 31
0.0
  0
LINE
  8
0
 10
5030.048
 20
1625.182
 30
0.0
 11
5069.919
 21
1625.182
 31
0.0
  0
LINE
  8
0
 10
5069.919
 20
1625.182
 30
0.0
 11
5030.048
 21
1625.182
 31
0.0
  0
LINE
  8
0
 10
5030.048
 20
1625.182
 30
0.0
 11
4990.176
 21
1625.182
 31
0.0
  0
LINE
  8
0
 10
4990.176
 20
1625.182
 30
0.0
 11
5069.919
 21
1620.197
 31
0.0
  0
LINE
  8
0
 10
5069.919
 20
1620.197
 30
0.0
 11
4990.176
 21
1620.197
 31
0.0
  0
LINE
  8
0
 10
4990.176
 20
1620.197
 30
0.0
 11
5069.919
 21
1615.214
 31
0.0
  0
LINE
  8
0
 10
5069.919
 20
1615.214
 30
0.0
 11
5030.048
 21
1615.214
 31
0.0
  0
LINE
  8
0
 10
5030.048
 20
1615.214
 30
0.0
 11
4990.176
 21
1615.214
 31
0.0
  0
LINE
  8
0
 10
4990.176
 20
1615.214
 30
0.0
 11
5030.048
 21
1615.214
 31
0.0
  0
LINE
  8
0
 10
5030.048
 20
1615.214
 30
0.0
 11
5030.048
 21
1561.887
 31
0.0
  0
LINE
  8
0
 10
5030.048
 20
1561.887
 30
0.0
 11
5069.919
 21
1561.887
 31
0.0
  0
LINE
  8
0
 10
5069.919
 20
1561.887
 30
0.0
 11
5030.048
 21
1561.887
 31
0.0
  0
LINE
  8
0
 10
5030.048
 20
1561.887
 30
0.0
 11
4990.176
 21
1561.887
 31
0.0
  0
LINE
  8
0
 10
4990.176
 20
1561.887
 30
0.0
 11
5069.919
 21
1556.902
 31
0.0
  0
LINE
  8
0
 10
5069.919
 20
1556.902
 30
0.0
 11
4990.176
 21
1556.902
 31
0.0
  0
LINE
  8
0
 10
4990.176
 20
1556.902
 30
0.0
 11
5069.919
 21
1551.917
 31
0.0
  0
LINE
  8
0
 10
5069.919
 20
1551.917
 30
0.0
 11
5030.048
 21
1551.917
 31
0.0
  0
LINE
  8
0
 10
5030.048
 20
1551.917
 30
0.0
 11
4990.176
 21
1551.917
 31
0.0
  0
LINE
  8
0
 10
4990.176
 20
1551.917
 30
0.0
 11
5030.048
 21
1551.917
 31
0.0
  0
LINE
  8
0
 10
5030.048
 20
1551.917
 30
0.0
 11
5030.048
 21
1498.589
 31
0.0
  0
LINE
  8
0
 10
5030.048
 20
1498.589
 30
0.0
 11
5069.919
 21
1498.589
 31
0.0
  0
LINE
  8
0
 10
5069.919
 20
1498.589
 30
0.0
 11
5030.048
 21
1498.589
 31
0.0
  0
LINE
  8
0
 10
5030.048
 20
1498.589
 30
0.0
 11
4990.176
 21
1498.589
 31
0.0
  0
LINE
  8
0
 10
4990.176
 20
1498.589
 30
0.0
 11
5069.919
 21
1493.603
 31
0.0
  0
LINE
  8
0
 10
5069.919
 20
1493.603
 30
0.0
 11
4990.176
 21
1493.603
 31
0.0
  0
LINE
  8
0
 10
4990.176
 20
1493.603
 30
0.0
 11
5069.919
 21
1488.621
 31
0.0
  0
LINE
  8
0
 10
5069.919
 20
1488.621
 30
0.0
 11
5030.048
 21
1488.621
 31
0.0
  0
LINE
  8
0
 10
5030.048
 20
1488.621
 30
0.0
 11
4990.176
 21
1488.621
 31
0.0
  0
LINE
  8
0
 10
4990.176
 20
1488.621
 30
0.0
 11
5030.048
 21
1488.621
 31
0.0
  0
LINE
  8
0
 10
5030.048
 20
1488.621
 30
0.0
 11
5030.048
 21
1435.294
 31
0.0
  0
LINE
  8
0
 10
5030.048
 20
1435.294
 30
0.0
 11
5069.919
 21
1435.294
 31
0.0
  0
LINE
  8
0
 10
5069.919
 20
1435.294
 30
0.0
 11
5030.048
 21
1435.294
 31
0.0
  0
LINE
  8
0
 10
5030.048
 20
1435.294
 30
0.0
 11
4990.176
 21
1435.294
 31
0.0
  0
LINE
  8
0
 10
4990.176
 20
1435.294
 30
0.0
 11
5069.919
 21
1430.309
 31
0.0
  0
LINE
  8
0
 10
5069.919
 20
1430.309
 30
0.0
 11
5075.701
 21
1430.309
 31
0.0
  0
LINE
  8
0
 10
5075.701
 20
1430.309
 30
0.0
 11
5085.669
 21
1430.309
 31
0.0
  0
LINE
  8
0
 10
5085.669
 20
1430.309
 30
0.0
 11
5126.339
 21
1430.309
 31
0.0
  0
LINE
  8
0
 10
5126.339
 20
1430.309
 30
0.0
 11
5136.306
 21
1430.309
 31
0.0
  0
LINE
  8
0
 10
5136.306
 20
1430.309
 30
0.0
 11
5176.977
 21
1430.309
 31
0.0
  0
LINE
  8
0
 10
5176.977
 20
1430.309
 30
0.0
 11
5186.944
 21
1430.309
 31
0.0
  0
LINE
  8
0
 10
5186.944
 20
1430.309
 30
0.0
 11
5227.612
 21
1430.309
 31
0.0
  0
LINE
  8
0
 10
5227.612
 20
1430.309
 30
0.0
 11
5237.58
 21
1430.309
 31
0.0
  0
LINE
  8
0
 10
5237.58
 20
1430.309
 30
0.0
 11
5278.249
 21
1430.309
 31
0.0
  0
LINE
  8
0
 10
5278.249
 20
1430.309
 30
0.0
 11
5288.217
 21
1430.309
 31
0.0
  0
LINE
  8
0
 10
5288.217
 20
1430.309
 30
0.0
 11
5328.887
 21
1430.309
 31
0.0
  0
LINE
  8
0
 10
5328.887
 20
1430.309
 30
0.0
 11
5338.854
 21
1430.309
 31
0.0
  0
LINE
  8
0
 10
5338.854
 20
1430.309
 30
0.0
 11
5379.525
 21
1430.309
 31
0.0
  0
LINE
  8
0
 10
5379.525
 20
1430.309
 30
0.0
 11
5389.493
 21
1430.309
 31
0.0
  0
LINE
  8
0
 10
5389.493
 20
1430.309
 30
0.0
 11
5430.161
 21
1430.309
 31
0.0
  0
LINE
  8
0
 10
5430.161
 20
1430.309
 30
0.0
 11
5440.128
 21
1430.309
 31
0.0
  0
LINE
  8
0
 10
5440.128
 20
1430.309
 30
0.0
 11
5480.799
 21
1430.309
 31
0.0
  0
LINE
  8
0
 10
5480.799
 20
1430.309
 30
0.0
 11
5490.766
 21
1430.309
 31
0.0
  0
LINE
  8
0
 10
5490.766
 20
1430.309
 30
0.0
 11
5490.766
 21
1390.437
 31
0.0
  0
LINE
  8
0
 10
5490.766
 20
1390.437
 30
0.0
 11
5490.766
 21
1430.309
 31
0.0
  0
LINE
  8
0
 10
5490.766
 20
1430.309
 30
0.0
 11
5490.766
 21
1470.181
 31
0.0
  0
LINE
  8
0
 10
5490.766
 20
1470.181
 30
0.0
 11
5485.781
 21
1390.437
 31
0.0
  0
LINE
  8
0
 10
5485.781
 20
1390.437
 30
0.0
 11
5485.781
 21
1470.181
 31
0.0
  0
LINE
  8
0
 10
5485.781
 20
1470.181
 30
0.0
 11
5480.799
 21
1390.437
 31
0.0
  0
LINE
  8
0
 10
5480.799
 20
1390.437
 30
0.0
 11
5480.799
 21
1430.309
 31
0.0
  0
LINE
  8
0
 10
5480.799
 20
1430.309
 30
0.0
 11
5480.799
 21
1470.181
 31
0.0
  0
LINE
  8
0
 10
5480.799
 20
1470.181
 30
0.0
 11
5480.799
 21
1430.309
 31
0.0
  0
LINE
  8
0
 10
5480.799
 20
1430.309
 30
0.0
 11
5440.128
 21
1430.309
 31
0.0
  0
LINE
  8
0
 10
5440.128
 20
1430.309
 30
0.0
 11
5440.128
 21
1390.437
 31
0.0
  0
LINE
  8
0
 10
5440.128
 20
1390.437
 30
0.0
 11
5440.128
 21
1430.309
 31
0.0
  0
LINE
  8
0
 10
5440.128
 20
1430.309
 30
0.0
 11
5440.128
 21
1470.181
 31
0.0
  0
LINE
  8
0
 10
5440.128
 20
1470.181
 30
0.0
 11
5435.147
 21
1390.437
 31
0.0
  0
LINE
  8
0
 10
5435.147
 20
1390.437
 30
0.0
 11
5435.147
 21
1470.181
 31
0.0
  0
LINE
  8
0
 10
5435.147
 20
1470.181
 30
0.0
 11
5430.161
 21
1390.437
 31
0.0
  0
LINE
  8
0
 10
5430.161
 20
1390.437
 30
0.0
 11
5430.161
 21
1430.309
 31
0.0
  0
LINE
  8
0
 10
5430.161
 20
1430.309
 30
0.0
 11
5430.161
 21
1470.181
 31
0.0
  0
LINE
  8
0
 10
5430.161
 20
1470.181
 30
0.0
 11
5430.161
 21
1430.309
 31
0.0
  0
LINE
  8
0
 10
5430.161
 20
1430.309
 30
0.0
 11
5389.493
 21
1430.309
 31
0.0
  0
LINE
  8
0
 10
5389.493
 20
1430.309
 30
0.0
 11
5389.493
 21
1390.437
 31
0.0
  0
LINE
  8
0
 10
5389.493
 20
1390.437
 30
0.0
 11
5389.493
 21
1430.309
 31
0.0
  0
LINE
  8
0
 10
5389.493
 20
1430.309
 30
0.0
 11
5389.493
 21
1470.181
 31
0.0
  0
LINE
  8
0
 10
5389.493
 20
1470.181
 30
0.0
 11
5384.507
 21
1390.437
 31
0.0
  0
LINE
  8
0
 10
5384.507
 20
1390.437
 30
0.0
 11
5384.507
 21
1470.181
 31
0.0
  0
LINE
  8
0
 10
5384.507
 20
1470.181
 30
0.0
 11
5379.525
 21
1390.437
 31
0.0
  0
LINE
  8
0
 10
5379.525
 20
1390.437
 30
0.0
 11
5379.525
 21
1430.309
 31
0.0
  0
LINE
  8
0
 10
5379.525
 20
1430.309
 30
0.0
 11
5379.525
 21
1470.181
 31
0.0
  0
LINE
  8
0
 10
5379.525
 20
1470.181
 30
0.0
 11
5379.525
 21
1430.309
 31
0.0
  0
LINE
  8
0
 10
5379.525
 20
1430.309
 30
0.0
 11
5338.854
 21
1430.309
 31
0.0
  0
LINE
  8
0
 10
5338.854
 20
1430.309
 30
0.0
 11
5338.854
 21
1390.437
 31
0.0
  0
LINE
  8
0
 10
5338.854
 20
1390.437
 30
0.0
 11
5338.854
 21
1430.309
 31
0.0
  0
LINE
  8
0
 10
5338.854
 20
1430.309
 30
0.0
 11
5338.854
 21
1470.181
 31
0.0
  0
LINE
  8
0
 10
5338.854
 20
1470.181
 30
0.0
 11
5333.873
 21
1390.437
 31
0.0
  0
LINE
  8
0
 10
5333.873
 20
1390.437
 30
0.0
 11
5333.873
 21
1470.181
 31
0.0
  0
LINE
  8
0
 10
5333.873
 20
1470.181
 30
0.0
 11
5328.887
 21
1390.437
 31
0.0
  0
LINE
  8
0
 10
5328.887
 20
1390.437
 30
0.0
 11
5328.887
 21
1430.309
 31
0.0
  0
LINE
  8
0
 10
5328.887
 20
1430.309
 30
0.0
 11
5328.887
 21
1470.181
 31
0.0
  0
LINE
  8
0
 10
5328.887
 20
1470.181
 30
0.0
 11
5328.887
 21
1430.309
 31
0.0
  0
LINE
  8
0
 10
5328.887
 20
1430.309
 30
0.0
 11
5288.217
 21
1430.309
 31
0.0
  0
LINE
  8
0
 10
5288.217
 20
1430.309
 30
0.0
 11
5288.217
 21
1390.437
 31
0.0
  0
LINE
  8
0
 10
5288.217
 20
1390.437
 30
0.0
 11
5288.217
 21
1430.309
 31
0.0
  0
LINE
  8
0
 10
5288.217
 20
1430.309
 30
0.0
 11
5288.217
 21
1470.181
 31
0.0
  0
LINE
  8
0
 10
5288.217
 20
1470.181
 30
0.0
 11
5283.231
 21
1390.437
 31
0.0
  0
LINE
  8
0
 10
5283.231
 20
1390.437
 30
0.0
 11
5283.231
 21
1470.181
 31
0.0
  0
LINE
  8
0
 10
5283.231
 20
1470.181
 30
0.0
 11
5278.249
 21
1390.437
 31
0.0
  0
LINE
  8
0
 10
5278.249
 20
1390.437
 30
0.0
 11
5278.249
 21
1430.309
 31
0.0
  0
LINE
  8
0
 10
5278.249
 20
1430.309
 30
0.0
 11
5278.249
 21
1470.181
 31
0.0
  0
LINE
  8
0
 10
5278.249
 20
1470.181
 30
0.0
 11
5278.249
 21
1430.309
 31
0.0
  0
LINE
  8
0
 10
5278.249
 20
1430.309
 30
0.0
 11
5237.58
 21
1430.309
 31
0.0
  0
LINE
  8
0
 10
5237.58
 20
1430.309
 30
0.0
 11
5237.58
 21
1390.437
 31
0.0
  0
LINE
  8
0
 10
5237.58
 20
1390.437
 30
0.0
 11
5237.58
 21
1430.309
 31
0.0
  0
LINE
  8
0
 10
5237.58
 20
1430.309
 30
0.0
 11
5237.58
 21
1470.181
 31
0.0
  0
LINE
  8
0
 10
5237.58
 20
1470.181
 30
0.0
 11
5232.597
 21
1390.437
 31
0.0
  0
LINE
  8
0
 10
5232.597
 20
1390.437
 30
0.0
 11
5232.597
 21
1470.181
 31
0.0
  0
LINE
  8
0
 10
5232.597
 20
1470.181
 30
0.0
 11
5227.612
 21
1390.437
 31
0.0
  0
LINE
  8
0
 10
5227.612
 20
1390.437
 30
0.0
 11
5227.612
 21
1430.309
 31
0.0
  0
LINE
  8
0
 10
5227.612
 20
1430.309
 30
0.0
 11
5227.612
 21
1470.181
 31
0.0
  0
LINE
  8
0
 10
5227.612
 20
1470.181
 30
0.0
 11
5227.612
 21
1430.309
 31
0.0
  0
LINE
  8
0
 10
5227.612
 20
1430.309
 30
0.0
 11
5186.944
 21
1430.309
 31
0.0
  0
LINE
  8
0
 10
5186.944
 20
1430.309
 30
0.0
 11
5186.944
 21
1390.437
 31
0.0
  0
LINE
  8
0
 10
5186.944
 20
1390.437
 30
0.0
 11
5186.944
 21
1430.309
 31
0.0
  0
LINE
  8
0
 10
5186.944
 20
1430.309
 30
0.0
 11
5186.944
 21
1470.181
 31
0.0
  0
LINE
  8
0
 10
5186.944
 20
1470.181
 30
0.0
 11
5181.959
 21
1390.437
 31
0.0
  0
LINE
  8
0
 10
5181.959
 20
1390.437
 30
0.0
 11
5181.959
 21
1470.181
 31
0.0
  0
LINE
  8
0
 10
5181.959
 20
1470.181
 30
0.0
 11
5176.977
 21
1390.437
 31
0.0
  0
LINE
  8
0
 10
5176.977
 20
1390.437
 30
0.0
 11
5176.977
 21
1430.309
 31
0.0
  0
LINE
  8
0
 10
5176.977
 20
1430.309
 30
0.0
 11
5176.977
 21
1470.181
 31
0.0
  0
LINE
  8
0
 10
5176.977
 20
1470.181
 30
0.0
 11
5176.977
 21
1430.309
 31
0.0
  0
LINE
  8
0
 10
5176.977
 20
1430.309
 30
0.0
 11
5136.306
 21
1430.309
 31
0.0
  0
LINE
  8
0
 10
5136.306
 20
1430.309
 30
0.0
 11
5136.306
 21
1390.437
 31
0.0
  0
LINE
  8
0
 10
5136.306
 20
1390.437
 30
0.0
 11
5136.306
 21
1430.309
 31
0.0
  0
LINE
  8
0
 10
5136.306
 20
1430.309
 30
0.0
 11
5136.306
 21
1470.181
 31
0.0
  0
LINE
  8
0
 10
5136.306
 20
1470.181
 30
0.0
 11
5131.324
 21
1390.437
 31
0.0
  0
LINE
  8
0
 10
5131.324
 20
1390.437
 30
0.0
 11
5131.324
 21
1470.181
 31
0.0
  0
LINE
  8
0
 10
5131.324
 20
1470.181
 30
0.0
 11
5126.339
 21
1390.437
 31
0.0
  0
LINE
  8
0
 10
5126.339
 20
1390.437
 30
0.0
 11
5126.339
 21
1430.309
 31
0.0
  0
LINE
  8
0
 10
5126.339
 20
1430.309
 30
0.0
 11
5126.339
 21
1470.181
 31
0.0
  0
LINE
  8
0
 10
5126.339
 20
1470.181
 30
0.0
 11
5126.339
 21
1430.309
 31
0.0
  0
LINE
  8
0
 10
5126.339
 20
1430.309
 30
0.0
 11
5085.669
 21
1430.309
 31
0.0
  0
LINE
  8
0
 10
5085.669
 20
1430.309
 30
0.0
 11
5085.669
 21
1390.437
 31
0.0
  0
LINE
  8
0
 10
5085.669
 20
1390.437
 30
0.0
 11
5085.669
 21
1430.309
 31
0.0
  0
LINE
  8
0
 10
5085.669
 20
1430.309
 30
0.0
 11
5085.669
 21
1470.181
 31
0.0
  0
LINE
  8
0
 10
5085.669
 20
1470.181
 30
0.0
 11
5080.685
 21
1390.437
 31
0.0
  0
LINE
  8
0
 10
5080.685
 20
1390.437
 30
0.0
 11
5080.685
 21
1470.181
 31
0.0
  0
LINE
  8
0
 10
5080.685
 20
1470.181
 30
0.0
 11
5075.701
 21
1390.437
 31
0.0
  0
LINE
  8
0
 10
5075.701
 20
1390.437
 30
0.0
 11
5075.701
 21
1430.309
 31
0.0
  0
LINE
  8
0
 10
5075.701
 20
1430.309
 30
0.0
 11
5075.701
 21
1470.181
 31
0.0
  0
LINE
  8
0
 10
5075.701
 20
1470.181
 30
0.0
 11
5075.701
 21
1430.309
 31
0.0
  0
LINE
  8
0
 10
5075.701
 20
1430.309
 30
0.0
 11
5069.919
 21
1430.309
 31
0.0
  0
LINE
  8
0
 10
5069.919
 20
1430.309
 30
0.0
 11
4990.176
 21
1430.309
 31
0.0
  0
LINE
  8
0
 10
4990.176
 20
1430.309
 30
0.0
 11
5069.919
 21
1425.325
 31
0.0
  0
LINE
  8
0
 10
5069.919
 20
1425.325
 30
0.0
 11
5030.048
 21
1425.325
 31
0.0
  0
LINE
  8
0
 10
5030.048
 20
1425.325
 30
0.0
 11
4990.176
 21
1425.325
 31
0.0
  0
LINE
  8
0
 10
4990.176
 20
1425.325
 30
0.0
 11
5030.048
 21
1425.325
 31
0.0
  0
LINE
  8
0
 10
5030.048
 20
1425.325
 30
0.0
 11
5030.048
 21
1371.997
 31
0.0
  0
LINE
  8
0
 10
5030.048
 20
1371.997
 30
0.0
 11
5069.919
 21
1371.997
 31
0.0
  0
LINE
  8
0
 10
5069.919
 20
1371.997
 30
0.0
 11
5030.048
 21
1371.997
 31
0.0
  0
LINE
  8
0
 10
5030.048
 20
1371.997
 30
0.0
 11
4990.176
 21
1371.997
 31
0.0
  0
LINE
  8
0
 10
4990.176
 20
1371.997
 30
0.0
 11
5069.919
 21
1367.013
 31
0.0
  0
LINE
  8
0
 10
5069.919
 20
1367.013
 30
0.0
 11
4990.176
 21
1367.013
 31
0.0
  0
LINE
  8
0
 10
4990.176
 20
1367.013
 30
0.0
 11
5069.919
 21
1362.029
 31
0.0
  0
LINE
  8
0
 10
5069.919
 20
1362.029
 30
0.0
 11
5030.048
 21
1362.029
 31
0.0
  0
LINE
  8
0
 10
5030.048
 20
1362.029
 30
0.0
 11
4990.176
 21
1362.029
 31
0.0
  0
LINE
  8
0
 10
4990.176
 20
1362.029
 30
0.0
 11
5030.048
 21
1362.029
 31
0.0
  0
LINE
  8
0
 10
5030.048
 20
1362.029
 30
0.0
 11
5030.048
 21
1308.701
 31
0.0
  0
LINE
  8
0
 10
5030.048
 20
1308.701
 30
0.0
 11
5069.919
 21
1308.701
 31
0.0
  0
LINE
  8
0
 10
5069.919
 20
1308.701
 30
0.0
 11
5030.048
 21
1308.701
 31
0.0
  0
LINE
  8
0
 10
5030.048
 20
1308.701
 30
0.0
 11
4990.176
 21
1308.701
 31
0.0
  0
LINE
  8
0
 10
4990.176
 20
1308.701
 30
0.0
 11
5069.919
 21
1303.716
 31
0.0
  0
LINE
  8
0
 10
5069.919
 20
1303.716
 30
0.0
 11
4990.176
 21
1303.716
 31
0.0
  0
LINE
  8
0
 10
4990.176
 20
1303.716
 30
0.0
 11
5069.919
 21
1298.733
 31
0.0
  0
LINE
  8
0
 10
5069.919
 20
1298.733
 30
0.0
 11
5030.048
 21
1298.733
 31
0.0
  0
LINE
  8
0
 10
5030.048
 20
1298.733
 30
0.0
 11
4990.176
 21
1298.733
 31
0.0
  0
LINE
  8
0
 10
4990.176
 20
1298.733
 30
0.0
 11
5030.048
 21
1298.733
 31
0.0
  0
LINE
  8
0
 10
5030.048
 20
1298.733
 30
0.0
 11
5030.048
 21
1245.405
 31
0.0
  0
LINE
  8
0
 10
5030.048
 20
1245.405
 30
0.0
 11
5069.919
 21
1245.405
 31
0.0
  0
LINE
  8
0
 10
5069.919
 20
1245.405
 30
0.0
 11
5030.048
 21
1245.405
 31
0.0
  0
LINE
  8
0
 10
5030.048
 20
1245.405
 30
0.0
 11
4990.176
 21
1245.405
 31
0.0
  0
LINE
  8
0
 10
4990.176
 20
1245.405
 30
0.0
 11
5069.919
 21
1240.42
 31
0.0
  0
LINE
  8
0
 10
5069.919
 20
1240.42
 30
0.0
 11
4990.176
 21
1240.42
 31
0.0
  0
LINE
  8
0
 10
4990.176
 20
1240.42
 30
0.0
 11
5069.919
 21
1235.436
 31
0.0
  0
LINE
  8
0
 10
5069.919
 20
1235.436
 30
0.0
 11
5030.048
 21
1235.436
 31
0.0
  0
LINE
  8
0
 10
5030.048
 20
1235.436
 30
0.0
 11
4990.176
 21
1235.436
 31
0.0
  0
LINE
  8
0
 10
4990.176
 20
1235.436
 30
0.0
 11
5030.048
 21
1235.436
 31
0.0
  0
LINE
  8
0
 10
5030.048
 20
1235.436
 30
0.0
 11
5030.048
 21
1182.108
 31
0.0
  0
LINE
  8
0
 10
5030.048
 20
1182.108
 30
0.0
 11
5069.919
 21
1182.108
 31
0.0
  0
LINE
  8
0
 10
5069.919
 20
1182.108
 30
0.0
 11
5030.048
 21
1182.108
 31
0.0
  0
LINE
  8
0
 10
5030.048
 20
1182.108
 30
0.0
 11
4990.176
 21
1182.108
 31
0.0
  0
LINE
  8
0
 10
4990.176
 20
1182.108
 30
0.0
 11
5069.919
 21
1177.124
 31
0.0
  0
LINE
  8
0
 10
5069.919
 20
1177.124
 30
0.0
 11
4990.176
 21
1177.124
 31
0.0
  0
LINE
  8
0
 10
4990.176
 20
1177.124
 30
0.0
 11
5069.919
 21
1172.14
 31
0.0
  0
LINE
  8
0
 10
5069.919
 20
1172.14
 30
0.0
 11
5030.048
 21
1172.14
 31
0.0
  0
LINE
  8
0
 10
5030.048
 20
1172.14
 30
0.0
 11
4990.176
 21
1172.14
 31
0.0
  0
LINE
  8
0
 10
4990.176
 20
1172.14
 30
0.0
 11
5030.048
 21
1172.14
 31
0.0
  0
LINE
  8
0
 10
5030.048
 20
1172.14
 30
0.0
 11
5030.048
 21
1118.812
 31
0.0
  0
LINE
  8
0
 10
5030.048
 20
1118.812
 30
0.0
 11
5069.919
 21
1118.812
 31
0.0
  0
LINE
  8
0
 10
5069.919
 20
1118.812
 30
0.0
 11
5030.048
 21
1118.812
 31
0.0
  0
LINE
  8
0
 10
5030.048
 20
1118.812
 30
0.0
 11
4990.176
 21
1118.812
 31
0.0
  0
LINE
  8
0
 10
4990.176
 20
1118.812
 30
0.0
 11
5069.919
 21
1113.827
 31
0.0
  0
LINE
  8
0
 10
5069.919
 20
1113.827
 30
0.0
 11
4990.176
 21
1113.827
 31
0.0
  0
LINE
  8
0
 10
4990.176
 20
1113.827
 30
0.0
 11
5069.919
 21
1108.842
 31
0.0
  0
LINE
  8
0
 10
5069.919
 20
1108.842
 30
0.0
 11
5030.048
 21
1108.842
 31
0.0
  0
LINE
  8
0
 10
5030.048
 20
1108.842
 30
0.0
 11
4990.176
 21
1108.842
 31
0.0
  0
LINE
  8
0
 10
4990.176
 20
1108.842
 30
0.0
 11
5030.048
 21
1108.842
 31
0.0
  0
LINE
  8
0
 10
5030.048
 20
1108.842
 30
0.0
 11
5030.048
 21
1050.531
 31
0.0
  0
LINE
  8
0
 10
5030.048
 20
1050.531
 30
0.0
 11
4984.395
 21
1050.531
 31
0.0
  0
LINE
  8
0
 10
4984.395
 20
1050.531
 30
0.0
 11
4984.395
 21
1010.66
 31
0.0
  0
LINE
  8
0
 10
4984.395
 20
1010.66
 30
0.0
 11
4984.395
 21
1050.531
 31
0.0
  0
LINE
  8
0
 10
4984.395
 20
1050.531
 30
0.0
 11
4984.395
 21
1090.403
 31
0.0
  0
LINE
  8
0
 10
4984.395
 20
1090.403
 30
0.0
 11
4979.41
 21
1010.66
 31
0.0
  0
LINE
  8
0
 10
4979.41
 20
1010.66
 30
0.0
 11
4979.41
 21
1090.403
 31
0.0
  0
LINE
  8
0
 10
4979.41
 20
1090.403
 30
0.0
 11
4974.427
 21
1010.66
 31
0.0
  0
LINE
  8
0
 10
4974.427
 20
1010.66
 30
0.0
 11
4974.427
 21
1050.531
 31
0.0
  0
LINE
  8
0
 10
4974.427
 20
1050.531
 30
0.0
 11
4974.427
 21
1090.403
 31
0.0
  0
LINE
  8
0
 10
4974.427
 20
1090.403
 30
0.0
 11
4974.427
 21
1050.531
 31
0.0
  0
LINE
  8
0
 10
4974.427
 20
1050.531
 30
0.0
 11
4933.758
 21
1050.531
 31
0.0
  0
LINE
  8
0
 10
4933.758
 20
1050.531
 30
0.0
 11
4933.758
 21
1010.66
 31
0.0
  0
LINE
  8
0
 10
4933.758
 20
1010.66
 30
0.0
 11
4933.758
 21
1050.531
 31
0.0
  0
LINE
  8
0
 10
4933.758
 20
1050.531
 30
0.0
 11
4933.758
 21
1090.403
 31
0.0
  0
LINE
  8
0
 10
4933.758
 20
1090.403
 30
0.0
 11
4928.775
 21
1010.66
 31
0.0
  0
LINE
  8
0
 10
4928.775
 20
1010.66
 30
0.0
 11
4928.775
 21
1090.403
 31
0.0
  0
LINE
  8
0
 10
4928.775
 20
1090.403
 30
0.0
 11
4923.79
 21
1010.66
 31
0.0
  0
LINE
  8
0
 10
4923.79
 20
1010.66
 30
0.0
 11
4923.79
 21
1050.531
 31
0.0
  0
LINE
  8
0
 10
4923.79
 20
1050.531
 30
0.0
 11
4923.79
 21
1090.403
 31
0.0
  0
LINE
  8
0
 10
4923.79
 20
1090.403
 30
0.0
 11
4923.79
 21
1050.531
 31
0.0
  0
LINE
  8
0
 10
4923.79
 20
1050.531
 30
0.0
 11
4883.12
 21
1050.531
 31
0.0
  0
LINE
  8
0
 10
4883.12
 20
1050.531
 30
0.0
 11
4883.12
 21
1010.66
 31
0.0
  0
LINE
  8
0
 10
4883.12
 20
1010.66
 30
0.0
 11
4883.12
 21
1050.531
 31
0.0
  0
LINE
  8
0
 10
4883.12
 20
1050.531
 30
0.0
 11
4883.12
 21
1090.403
 31
0.0
  0
LINE
  8
0
 10
4883.12
 20
1090.403
 30
0.0
 11
4878.137
 21
1010.66
 31
0.0
  0
LINE
  8
0
 10
4878.137
 20
1010.66
 30
0.0
 11
4878.137
 21
1090.403
 31
0.0
  0
LINE
  8
0
 10
4878.137
 20
1090.403
 30
0.0
 11
4873.155
 21
1010.66
 31
0.0
  0
LINE
  8
0
 10
4873.155
 20
1010.66
 30
0.0
 11
4873.155
 21
1050.531
 31
0.0
  0
LINE
  8
0
 10
4873.155
 20
1050.531
 30
0.0
 11
4873.155
 21
1090.403
 31
0.0
  0
LINE
  8
0
 10
4873.155
 20
1090.403
 30
0.0
 11
4873.155
 21
1050.531
 31
0.0
  0
LINE
  8
0
 10
4873.155
 20
1050.531
 30
0.0
 11
4832.484
 21
1050.531
 31
0.0
  0
LINE
  8
0
 10
4832.484
 20
1050.531
 30
0.0
 11
4832.484
 21
1010.66
 31
0.0
  0
LINE
  8
0
 10
4832.484
 20
1010.66
 30
0.0
 11
4832.484
 21
1050.531
 31
0.0
  0
LINE
  8
0
 10
4832.484
 20
1050.531
 30
0.0
 11
4832.484
 21
1090.403
 31
0.0
  0
LINE
  8
0
 10
4832.484
 20
1090.403
 30
0.0
 11
4827.501
 21
1010.66
 31
0.0
  0
LINE
  8
0
 10
4827.501
 20
1010.66
 30
0.0
 11
4827.501
 21
1090.403
 31
0.0
  0
LINE
  8
0
 10
4827.501
 20
1090.403
 30
0.0
 11
4822.516
 21
1010.66
 31
0.0
  0
LINE
  8
0
 10
4822.516
 20
1010.66
 30
0.0
 11
4822.516
 21
1050.531
 31
0.0
  0
LINE
  8
0
 10
4822.516
 20
1050.531
 30
0.0
 11
4822.516
 21
1090.403
 31
0.0
  0
LINE
  8
0
 10
4822.516
 20
1090.403
 30
0.0
 11
4822.516
 21
1050.531
 31
0.0
  0
LINE
  8
0
 10
4822.516
 20
1050.531
 30
0.0
 11
4781.847
 21
1050.531
 31
0.0
  0
LINE
  8
0
 10
4781.847
 20
1050.531
 30
0.0
 11
4781.847
 21
1010.66
 31
0.0
  0
LINE
  8
0
 10
4781.847
 20
1010.66
 30
0.0
 11
4781.847
 21
1050.531
 31
0.0
  0
LINE
  8
0
 10
4781.847
 20
1050.531
 30
0.0
 11
4781.847
 21
1090.403
 31
0.0
  0
LINE
  8
0
 10
4781.847
 20
1090.403
 30
0.0
 11
4776.862
 21
1010.66
 31
0.0
  0
LINE
  8
0
 10
4776.862
 20
1010.66
 30
0.0
 11
4776.862
 21
1090.403
 31
0.0
  0
LINE
  8
0
 10
4776.862
 20
1090.403
 30
0.0
 11
4771.878
 21
1010.66
 31
0.0
  0
LINE
  8
0
 10
4771.878
 20
1010.66
 30
0.0
 11
4771.878
 21
1050.531
 31
0.0
  0
LINE
  8
0
 10
4771.878
 20
1050.531
 30
0.0
 11
4771.878
 21
1090.403
 31
0.0
  0
LINE
  8
0
 10
4771.878
 20
1090.403
 30
0.0
 11
4771.878
 21
1050.531
 31
0.0
  0
LINE
  8
0
 10
4771.878
 20
1050.531
 30
0.0
 11
4731.209
 21
1050.531
 31
0.0
  0
LINE
  8
0
 10
4731.209
 20
1050.531
 30
0.0
 11
4731.209
 21
1010.66
 31
0.0
  0
LINE
  8
0
 10
4731.209
 20
1010.66
 30
0.0
 11
4731.209
 21
1050.531
 31
0.0
  0
LINE
  8
0
 10
4731.209
 20
1050.531
 30
0.0
 11
4731.209
 21
1090.403
 31
0.0
  0
LINE
  8
0
 10
4731.209
 20
1090.403
 30
0.0
 11
4726.227
 21
1010.66
 31
0.0
  0
LINE
  8
0
 10
4726.227
 20
1010.66
 30
0.0
 11
4726.227
 21
1090.403
 31
0.0
  0
LINE
  8
0
 10
4726.227
 20
1090.403
 30
0.0
 11
4721.242
 21
1010.66
 31
0.0
  0
LINE
  8
0
 10
4721.242
 20
1010.66
 30
0.0
 11
4721.242
 21
1050.531
 31
0.0
  0
LINE
  8
0
 10
4721.242
 20
1050.531
 30
0.0
 11
4721.242
 21
1090.403
 31
0.0
  0
LINE
  8
0
 10
4721.242
 20
1090.403
 30
0.0
 11
4721.242
 21
1050.531
 31
0.0
  0
LINE
  8
0
 10
4721.242
 20
1050.531
 30
0.0
 11
4680.573
 21
1050.531
 31
0.0
  0
LINE
  8
0
 10
4680.573
 20
1050.531
 30
0.0
 11
4680.573
 21
1010.66
 31
0.0
  0
LINE
  8
0
 10
4680.573
 20
1010.66
 30
0.0
 11
4680.573
 21
1050.531
 31
0.0
  0
LINE
  8
0
 10
4680.573
 20
1050.531
 30
0.0
 11
4680.573
 21
1090.403
 31
0.0
  0
LINE
  8
0
 10
4680.573
 20
1090.403
 30
0.0
 11
4675.589
 21
1010.66
 31
0.0
  0
LINE
  8
0
 10
4675.589
 20
1010.66
 30
0.0
 11
4675.589
 21
1090.403
 31
0.0
  0
LINE
  8
0
 10
4675.589
 20
1090.403
 30
0.0
 11
4670.605
 21
1010.66
 31
0.0
  0
LINE
  8
0
 10
4670.605
 20
1010.66
 30
0.0
 11
4670.605
 21
1050.531
 31
0.0
  0
LINE
  8
0
 10
4670.605
 20
1050.531
 30
0.0
 11
4670.605
 21
1090.403
 31
0.0
  0
LINE
  8
0
 10
4670.605
 20
1090.403
 30
0.0
 11
4670.605
 21
1050.531
 31
0.0
  0
LINE
  8
0
 10
4670.605
 20
1050.531
 30
0.0
 11
4629.935
 21
1050.531
 31
0.0
  0
LINE
  8
0
 10
4629.935
 20
1050.531
 30
0.0
 11
4629.935
 21
1010.66
 31
0.0
  0
LINE
  8
0
 10
4629.935
 20
1010.66
 30
0.0
 11
4629.935
 21
1050.531
 31
0.0
  0
LINE
  8
0
 10
4629.935
 20
1050.531
 30
0.0
 11
4629.935
 21
1090.403
 31
0.0
  0
LINE
  8
0
 10
4629.935
 20
1090.403
 30
0.0
 11
4624.953
 21
1010.66
 31
0.0
  0
LINE
  8
0
 10
4624.953
 20
1010.66
 30
0.0
 11
4624.953
 21
1090.403
 31
0.0
  0
LINE
  8
0
 10
4624.953
 20
1090.403
 30
0.0
 11
4619.967
 21
1010.66
 31
0.0
  0
LINE
  8
0
 10
4619.967
 20
1010.66
 30
0.0
 11
4619.967
 21
1050.531
 31
0.0
  0
LINE
  8
0
 10
4619.967
 20
1050.531
 30
0.0
 11
4619.967
 21
1090.403
 31
0.0
  0
LINE
  8
0
 10
4619.967
 20
1090.403
 30
0.0
 11
4619.967
 21
1050.531
 31
0.0
  0
LINE
  8
0
 10
4619.967
 20
1050.531
 30
0.0
 11
4579.299
 21
1050.531
 31
0.0
  0
LINE
  8
0
 10
4579.299
 20
1050.531
 30
0.0
 11
4579.299
 21
1010.66
 31
0.0
  0
LINE
  8
0
 10
4579.299
 20
1010.66
 30
0.0
 11
4579.299
 21
1050.531
 31
0.0
  0
LINE
  8
0
 10
4579.299
 20
1050.531
 30
0.0
 11
4579.299
 21
1090.403
 31
0.0
  0
LINE
  8
0
 10
4579.299
 20
1090.403
 30
0.0
 11
4574.314
 21
1010.66
 31
0.0
  0
LINE
  8
0
 10
4574.314
 20
1010.66
 30
0.0
 11
4574.314
 21
1090.403
 31
0.0
  0
LINE
  8
0
 10
4574.314
 20
1090.403
 30
0.0
 11
4569.331
 21
1010.66
 31
0.0
  0
LINE
  8
0
 10
4569.331
 20
1010.66
 30
0.0
 11
4569.331
 21
1050.531
 31
0.0
  0
LINE
  8
0
 10
4569.331
 20
1050.531
 30
0.0
 11
4569.331
 21
1090.403
 31
0.0
  0
LINE
  8
0
 10
4569.331
 20
1090.403
 30
0.0
 11
4569.331
 21
1050.531
 31
0.0
  0
LINE
  8
0
 10
4569.331
 20
1050.531
 30
0.0
 11
4563.549
 21
1050.531
 31
0.0
  0
CIRCLE
  8
0
 10
1000
 20
7000
 30
0.0
 40
100
  0
CIRCLE
  8
0
 10
3000
 20
7000
 30
0.0
 40
100
  0
CIRCLE
  8
0
 10
100
 20
100
 30
0.0
 40
129
  0
CIRCLE
  8
0
 10
200
 20
200
 30
0.0
 40
200
  0
CIRCLE
  8
0
 10
300
 20
300
 30
0.0
 40
200
  0
CIRCLE
  8
0
 10
350
 20
350
 30
0.0
 40
200
  0
CIRCLE
  8
0
 10
360
 20
360
 30
0.0
 40
200
  0
CIRCLE
  8
0
 10
370
 20
370
 30
0.0
 40
200
  0
ENDSEC
  0
EOF
