  0
SECTION
  2
ENTITIES
  0
ARC
  8
0
 10
4790.933
 20
1965.276
 30
0.0
 40
136.0265
 50
89.99999
 51
242.9303
  0
ARC
  8
0
 10
4679.015
 20
1720.302
 30
0.0
 40
133.5661
 50
68.009
 51
291.991
  0
ARC
  8
0
 10
4790.933
 20
1475.329
 30
0.0
 40
136.0265
 50
117.0697
 51
270
  0
ARC
  8
0
 10
4790.933
 20
1203.276
 30
0.0
 40
136.0265
 50
4.235243
 51
89.99999
  0
ARC
  8
0
 10
5062.244
 20
1203.276
 30
0.0
 40
136.0265
 50
297.0697
 51
175.7647
  0
ARC
  8
0
 10
5174.161
 20
958.3022
 30
0.0
 40
133.5661
 50
248.009
 51
111.991
  0
ARC
  8
0
 10
5062.244
 20
713.3287
 30
0.0
 40
136.0265
 50
184.2352
 51
62.9303
  0
ARC
  8
0
 10
4790.933
 20
713.3287
 30
0.0
 40
136.0265
 50
270
 51
355.7648
  0
CIRCLE
  8
0
 10
1000
 20
7000
 30
0.0
 40
100
  0
CIRCLE
  8
0
 10
1000
 20
8000
 30
0.0
 40
100
  0
CIRCLE
  8
0
 10
2500
 20
7000
 30
0.0
 40
100
  0
CIRCLE
  8
0
 10
2500
 20
8000
 30
0.0
 40
100
  0
CIRCLE
  8
0
 10
100
 20
100
 30
0.0
 40
125
  0
CIRCLE
  8
0
 10
200
 20
200
 30
0.0
 40
200
  0
CIRCLE
  8
0
 10
300
 20
300
 30
0.0
 40
200
  0
CIRCLE
  8
0
 10
350
 20
350
 30
0.0
 40
200
  0
CIRCLE
  8
0
 10
360
 20
360
 30
0.0
 40
200
  0
CIRCLE
  8
0
 10
370
 20
370
 30
0.0
 40
200
  0
ENDSEC
  0
EOF
