  0
SECTION
  2
ENTITIES
  0
ARC
  8
0
 10
2734.378
 20
1469.22
 30
0.0
 40
58.44909
 50
110.4045
 51
177.072
  0
LINE
  8
0
 10
2676.005
 20
1472.205
 30
0.0
 11
2642.527
 21
1329.379
 31
0.0
  0
ARC
  8
0
 10
2605.266
 20
1331.908
 30
0.0
 40
37.34651
 50
264.6527
 51
356.1164
  0
LINE
  8
0
 10
2601.786
 20
1294.724
 30
0.0
 11
2481.098
 21
1325.703
 31
0.0
  0
ARC
  8
0
 10
2468.849
 20
1296.754
 30
0.0
 40
31.43394
 50
67.0651
 51
189.6267
  0
LINE
  8
0
 10
2437.858
 20
1291.497
 30
0.0
 11
2459.625
 21
1187.661
 31
0.0
  0
ARC
  8
0
 10
2330.805
 20
1155.101
 30
0.0
 40
132.8707
 50
351.9985
 51
14.18494
  0
ARC
  8
0
 10
2450.765
 20
1139.188
 30
0.0
 40
11.90076
 50
257.4741
 51
347.4634
  0
ARC
  8
0
 10
2511.081
 20
1295.33
 30
0.0
 40
179.1615
 50
231.0658
 51
249.4483
  0
LINE
  8
0
 10
2398.489
 20
1155.966
 30
0.0
 11
2359.86
 21
1180
 31
0.0
  0
ARC
  8
0
 10
2333.52
 20
1151.091
 30
0.0
 40
39.10906
 50
47.66202
 51
142.8996
  0
LINE
  8
0
 10
2302.327
 20
1174.682
 30
0.0
 11
2237.467
 21
1055.333
 31
0.0
  0
ARC
  8
0
 10
2278.25
 20
1027.569
 30
0.0
 40
49.33754
 50
145.7539
 51
213.9712
  0
ARC
  8
0
 10
2189.748
 20
890.2231
 30
0.0
 40
119.6471
 50
5.80759
 51
66.56457
  0
ARC
  8
0
 10
2376.653
 20
929.3923
 30
0.0
 40
73.06876
 50
201.7384
 51
266.0894
  0
LINE
  8
0
 10
2371.669
 20
856.4938
 30
0.0
 11
2459.801
 21
846.1818
 31
0.0
  0
ARC
  8
0
 10
2452.563
 20
802.6568
 30
0.0
 40
44.1227
 50
334.2604
 51
80.55804
  0
LINE
  8
0
 10
2492.307
 20
783.4951
 30
0.0
 11
2357.83
 21
449.2698
 31
0.0
  0
ARC
  8
0
 10
2370.092
 20
441.0801
 30
0.0
 40
14.74571
 50
146.2617
 51
314.4498
  0
LINE
  8
0
 10
2380.418
 20
430.5537
 30
0.0
 11
2544.347
 21
599.6445
 31
0.0
  0
ARC
  8
0
 10
2562.059
 20
565.0039
 30
0.0
 40
38.90666
 50
46.42504
 51
117.0823
  0
LINE
  8
0
 10
2588.878
 20
593.1908
 30
0.0
 11
2659.225
 21
515.0992
 31
0.0
  0
ARC
  8
0
 10
2670.826
 20
520.7068
 30
0.0
 40
12.88516
 50
205.7981
 51
319.9591
  0
LINE
  8
0
 10
2680.691
 20
512.4173
 30
0.0
 11
2786
 21
696.0002
 31
0.0
  0
ARC
  8
0
 10
2841.171
 20
673.4575
 30
0.0
 40
59.59906
 50
74.12292
 51
157.7754
  0
LINE
  8
0
 10
2857.476
 20
730.7828
 30
0.0
 11
2954
 21
684.0001
 31
0.0
  0
ARC
  8
0
 10
2962.533
 20
693.3333
 30
0.0
 40
12.64622
 50
227.5632
 51
21.06442
  0
LINE
  8
0
 10
2974.335
 20
697.8785
 30
0.0
 11
2950
 21
896.0004
 31
0.0
  0
ARC
  8
0
 10
2959.465
 20
898.0004
 30
0.0
 40
9.673857
 50
77.47077
 51
191.9315
  0
LINE
  8
0
 10
2961.563
 20
907.444
 30
0.0
 11
3066
 21
864.0002
 31
0.0
  0
ARC
  8
0
 10
3080.713
 20
878.2767
 30
0.0
 40
20.50066
 50
224.1379
 51
331.9189
  0
LINE
  8
0
 10
3098.8
 20
868.6265
 30
0.0
 11
3187.819
 21
993.6527
 31
0.0
  0
ARC
  8
0
 10
3159.198
 20
1013.599
 30
0.0
 40
34.88623
 50
325.1277
 51
49.18303
  0
LINE
  8
0
 10
3182
 20
1040.001
 30
0.0
 11
3129.201
 21
1101.653
 31
0.0
  0
ARC
  8
0
 10
3110.412
 20
1081.559
 30
0.0
 40
27.5093
 50
46.92404
 51
137.9027
  0
LINE
  8
0
 10
3090
 20
1100.001
 30
0.0
 11
2931.963
 21
931.4788
 31
0.0
  0
ARC
  8
0
 10
2866.986
 20
994.1135
 30
0.0
 40
90.25089
 50
266.8335
 51
316.052
  0
ARC
  8
0
 10
2874
 20
928.0004
 30
0.0
 40
26.8324
 50
153.4343
 51
243.4373
  0
LINE
  8
0
 10
2850
 20
940.0007
 30
0.0
 11
2977.985
 21
1299.914
 31
0.0
  0
ARC
  8
0
 10
2967.993
 20
1305.971
 30
0.0
 40
11.68515
 50
328.7814
 51
120.8545
  0
LINE
  8
0
 10
2962
 20
1316.002
 30
0.0
 11
2867.861
 21
1283.393
 31
0.0
  0
ARC
  8
0
 10
2852.647
 20
1337.615
 30
0.0
 40
56.3171
 50
193.9896
 51
285.6745
  0
LINE
  8
0
 10
2798
 20
1324.001
 30
0.0
 11
2741.999
 21
1480.002
 31
0.0
  0
ARC
  8
0
 10
2716.222
 20
1472.996
 30
0.0
 40
26.71152
 50
15.2045
 51
71.21429
  0
LINE
  8
0
 10
2724.824
 20
1498.284
 30
0.0
 11
2714
 21
1524.001
 31
0.0
  0
LINE
  8
0
 10
2714
 20
1524.001
 30
0.0
 11
2662.991
 21
1280.862
 31
0.0
  0
ARC
  8
0
 10
2621.069
 20
1299.616
 30
0.0
 40
45.9263
 50
241.5708
 51
335.8997
  0
LINE
  8
0
 10
2599.205
 20
1259.228
 30
0.0
 11
2512.066
 21
1283.416
 31
0.0
  0
ARC
  8
0
 10
2505.305
 20
1265.278
 30
0.0
 40
19.35735
 50
69.56051
 51
190.3206
  0
LINE
  8
0
 10
2486.261
 20
1261.81
 30
0.0
 11
2497.996
 21
1141.698
 31
0.0
  0
ARC
  8
0
 10
2455.02
 20
1139.837
 30
0.0
 40
43.01645
 50
253.8038
 51
2.479923
  0
LINE
  8
0
 10
2443.021
 20
1098.527
 30
0.0
 11
2363.697
 21
1140.421
 31
0.0
  0
ARC
  8
0
 10
2348.221
 20
1113.878
 30
0.0
 40
30.72519
 50
59.75674
 51
161.3625
  0
ARC
  8
0
 10
2971.624
 20
659.3052
 30
0.0
 40
800.8976
 50
144.5607
 51
151.7402
  0
ARC
  8
0
 10
2275.739
 20
1026.391
 30
0.0
 40
15.4292
 50
128.2569
 51
248.3948
  0
ARC
  8
0
 10
2214.879
 20
880.2622
 30
0.0
 40
142.8688
 50
12.04453
 51
67.28088
  0
ARC
  8
0
 10
2414.799
 20
949.7942
 30
0.0
 40
72.11983
 50
213.4179
 51
273.4516
  0
LINE
  8
0
 10
2419.141
 20
877.8052
 30
0.0
 11
2511.554
 21
869.1068
 31
0.0
  0
ARC
  8
0
 10
2512.19
 20
843.9228
 30
0.0
 40
25.19208
 50
336.604
 51
91.44746
  0
LINE
  8
0
 10
2535.311
 20
833.9194
 30
0.0
 11
2375.422
 21
477.6668
 31
0.0
  0
ARC
  8
0
 10
2386.071
 20
475.3844
 30
0.0
 40
10.89132
 50
167.9034
 51
321.6828
  0
LINE
  8
0
 10
2394.617
 20
468.6316
 30
0.0
 11
2544.347
 21
599.6445
 31
0.0
  0
ARC
  8
0
 10
2611.524
 20
543.1939
 30
0.0
 40
87.74689
 50
68.46358
 51
139.959
  0
ARC
  8
0
 10
2581.477
 20
507.8267
 30
0.0
 40
132.5229
 50
7.520907E-02
 51
61.97941
  0
ARC
  8
0
 10
2726.758
 20
453.1733
 30
0.0
 40
56.29259
 50
11.08981
 51
103.0998
  0
LINE
  8
0
 10
2782
 20
464.0013
 30
0.0
 11
2820.196
 21
330.1746
 31
0.0
  0
ARC
  8
0
 10
2857.092
 20
337.6313
 30
0.0
 40
37.64202
 50
191.4263
 51
296.691
  0
LINE
  8
0
 10
2874
 20
304.0006
 30
0.0
 11
2969.767
 21
338.4352
 31
0.0
  0
ARC
  8
0
 10
2983.027
 20
306.7813
 30
0.0
 40
34.31911
 50
334.4886
 51
112.7291
  0
LINE
  8
0
 10
3014
 20
292.0006
 30
0.0
 11
2897.447
 21
-28.34754
 31
0.0
  0
ARC
  8
0
 10
2986.489
 20
-65.99982
 30
0.0
 40
96.67563
 50
157.0784
 51
183.5585
  0
ARC
  8
0
 10
2855.996
 20
26.00396
 30
0.0
 40
103.7357
 50
289.1349
 51
326.0032
  0
LINE
  8
0
 10
2942
 20
-31.99948
 30
0.0
 11
3083.178
 21
118.6963
 31
0.0
  0
ARC
  8
0
 10
3108.487
 20
105.4092
 30
0.0
 40
28.58462
 50
52.21671
 51
152.3007
  0
LINE
  8
0
 10
3126
 20
128.0007
 30
0.0
 11
3206
 21
40.00054
 31
0.0
  0
ARC
  8
0
 10
3149
 20
-5.999799
 30
0.0
 40
73.24616
 50
321.0959
 51
38.90459
  0
LINE
  8
0
 10
3206
 20
-51.99977
 30
0.0
 11
3117.346
 21
-174.9217
 31
0.0
  0
ARC
  8
0
 10
3088.974
 20
-139.6152
 30
0.0
 40
45.2932
 50
233.4483
 51
308.7841
  0
LINE
  8
0
 10
3062
 20
-176.0001
 30
0.0
 11
2988.764
 21
-138.6087
 31
0.0
  0
ARC
  8
0
 10
2988.222
 20
-153.1108
 30
0.0
 40
14.51223
 50
87.8597
 51
191.4841
  0
LINE
  8
0
 10
2974
 20
-156
 30
0.0
 11
3009.214
 21
-327.3914
 31
0.0
  0
ARC
  8
0
 10
2984.105
 20
-339.0552
 30
0.0
 40
27.68588
 50
229.1591
 51
24.91602
  0
LINE
  8
0
 10
2966
 20
-360.0004
 30
0.0
 11
2871.149
 21
-307.5653
 31
0.0
  0
ARC
  8
0
 10
2848.709
 20
-346.052
 30
0.0
 40
44.55046
 50
59.75633
 51
150.3312
  0
LINE
  8
0
 10
2810
 20
-324.0002
 30
0.0
 11
2714
 21
-508.0005
 31
0.0
  0
CIRCLE
  8
0
 10
1000
 20
6000
 30
0.0
 40
100
  0
CIRCLE
  8
0
 10
1000
 20
8000
 30
0.0
 40
100
  0
CIRCLE
  8
0
 10
3000
 20
6000
 30
0.0
 40
100
  0
CIRCLE
  8
0
 10
3000
 20
8000
 30
0.0
 40
100
  0
CIRCLE
  8
0
 10
100
 20
100
 30
0.0
 40
125
  0
CIRCLE
  8
0
 10
200
 20
200
 30
0.0
 40
200
  0
CIRCLE
  8
0
 10
300
 20
300
 30
0.0
 40
200
  0
CIRCLE
  8
0
 10
350
 20
350
 30
0.0
 40
200
  0
CIRCLE
  8
0
 10
360
 20
360
 30
0.0
 40
200
  0
CIRCLE
  8
0
 10
370
 20
370
 30
0.0
 40
200
  0
ENDSEC
  0
EOF
