  0
SECTION
  2
ENTITIES
  0
LINE
  8
0
 10
4030.313
 20
979.6801
 30
0.0
 11
3522.309
 21
471.6801
 31
0.0
  0
LINE
  8
0
 10
3522.309
 20
471.6801
 30
0.0
 11
3522.309
 21
344.6801
 31
0.0
  0
LINE
  8
0
 10
3522.309
 20
344.6801
 30
0.0
 11
4030.313
 21
852.6805
 31
0.0
  0
LINE
  8
0
 10
4030.313
 20
852.6805
 30
0.0
 11
4030.313
 21
725.6799
 31
0.0
  0
LINE
  8
0
 10
4030.313
 20
725.6799
 30
0.0
 11
3522.309
 21
217.6799
 31
0.0
  0
LINE
  8
0
 10
3522.309
 20
217.6799
 30
0.0
 11
3522.309
 21
90.67972
 31
0.0
  0
LINE
  8
0
 10
3522.309
 20
90.67972
 30
0.0
 11
3522.309
 21
217.6799
 31
0.0
  0
LINE
  8
0
 10
3522.309
 20
217.6799
 30
0.0
 11
4030.313
 21
-290.3199
 31
0.0
  0
LINE
  8
0
 10
4030.313
 20
-290.3199
 30
0.0
 11
4030.313
 21
-417.3201
 31
0.0
  0
LINE
  8
0
 10
4030.313
 20
-417.3201
 30
0.0
 11
3522.309
 21
90.67972
 31
0.0
  0
LINE
  8
0
 10
3522.309
 20
90.67972
 30
0.0
 11
3522.309
 21
-36.32008
 31
0.0
  0
LINE
  8
0
 10
3522.309
 20
-36.32008
 30
0.0
 11
4030.313
 21
-544.3199
 31
0.0
  0
LINE
  8
0
 10
4030.313
 20
-544.3199
 30
0.0
 11
4030.313
 21
-417.3201
 31
0.0
  0
LINE
  8
0
 10
4030.313
 20
-417.3201
 30
0.0
 11
4030.313
 21
-544.3199
 31
0.0
  0
CIRCLE
  8
0
 10
1000
 20
7000
 30
0.0
 40
100
  0
CIRCLE
  8
0
 10
2000
 20
8000
 30
0.0
 40
100
  0
CIRCLE
  8
0
 10
3000
 20
7000
 30
0.0
 40
100
  0
CIRCLE
  8
0
 10
100
 20
100
 30
0.0
 40
128
  0
CIRCLE
  8
0
 10
200
 20
200
 30
0.0
 40
200
  0
CIRCLE
  8
0
 10
300
 20
300
 30
0.0
 40
200
  0
CIRCLE
  8
0
 10
350
 20
350
 30
0.0
 40
200
  0
CIRCLE
  8
0
 10
360
 20
360
 30
0.0
 40
200
  0
CIRCLE
  8
0
 10
370
 20
370
 30
0.0
 40
200
  0
ENDSEC
  0
EOF
