  0
SECTION
  2
ENTITIES
  0
LINE
  8
0
 10
4216.579
 20
1305.647
 30
0.0
 11
3962.579
 21
969.6468
 31
0.0
  0
LINE
  8
0
 10
3962.579
 20
969.6468
 30
0.0
 11
3992.579
 21
924.6469
 31
0.0
  0
LINE
  8
0
 10
3992.579
 20
924.6469
 30
0.0
 11
4216.579
 21
1220.962
 31
0.0
  0
LINE
  8
0
 10
4216.579
 20
1220.962
 30
0.0
 11
4440.579
 21
924.6469
 31
0.0
  0
LINE
  8
0
 10
4440.579
 20
924.6469
 30
0.0
 11
4216.579
 21
628.332
 31
0.0
  0
LINE
  8
0
 10
4216.579
 20
628.332
 30
0.0
 11
3992.579
 21
924.6469
 31
0.0
  0
LINE
  8
0
 10
3992.579
 20
924.6469
 30
0.0
 11
3962.579
 21
879.6469
 31
0.0
  0
LINE
  8
0
 10
3962.579
 20
879.6469
 30
0.0
 11
4216.579
 21
543.647
 31
0.0
  0
LINE
  8
0
 10
4216.579
 20
543.647
 30
0.0
 11
4470.579
 21
879.6469
 31
0.0
  0
LINE
  8
0
 10
4470.579
 20
879.6469
 30
0.0
 11
4440.579
 21
924.6469
 31
0.0
  0
LINE
  8
0
 10
4440.579
 20
924.6469
 30
0.0
 11
4470.579
 21
969.6468
 31
0.0
  0
LINE
  8
0
 10
4470.579
 20
969.6468
 30
0.0
 11
4216.579
 21
1305.647
 31
0.0
  0
LINE
  8
0
 10
4216.579
 20
1305.647
 30
0.0
 11
4470.579
 21
969.6468
 31
0.0
  0
LINE
  8
0
 10
4470.579
 20
969.6468
 30
0.0
 11
4440.579
 21
924.6469
 31
0.0
  0
LINE
  8
0
 10
4440.579
 20
924.6469
 30
0.0
 11
4470.579
 21
879.6469
 31
0.0
  0
LINE
  8
0
 10
4470.579
 20
879.6469
 30
0.0
 11
4216.579
 21
543.647
 31
0.0
  0
CIRCLE
  8
0
 10
1000
 20
7000
 30
0.0
 40
100
  0
CIRCLE
  8
0
 10
2000
 20
7000
 30
0.0
 40
100
  0
CIRCLE
  8
0
 10
100
 20
100
 30
0.0
 40
125
  0
CIRCLE
  8
0
 10
200
 20
200
 30
0.0
 40
200
  0
CIRCLE
  8
0
 10
300
 20
300
 30
0.0
 40
200
  0
CIRCLE
  8
0
 10
350
 20
350
 30
0.0
 40
200
  0
CIRCLE
  8
0
 10
360
 20
360
 30
0.0
 40
200
  0
CIRCLE
  8
0
 10
370
 20
370
 30
0.0
 40
200
  0
ENDSEC
  0
EOF
